ISO-10303-21;
HEADER;
FILE_DESCRIPTION(('STEP AP214'),'1');
FILE_NAME('RG1010D10_DC.stp','2024-06-18T02:04:00',(' '),(' '),'Spatial InterOp 3D',' ',' ');
FILE_SCHEMA(('AUTOMOTIVE_DESIGN { 1 0 10303 214 1 1 1 1 }'));
ENDSEC;
DATA;
#1=MECHANICAL_DESIGN_GEOMETRIC_PRESENTATION_REPRESENTATION(' ',(#12,#13,#14),#8);
#2=PRODUCT_DEFINITION_CONTEXT('',#15,'design');
#3=APPLICATION_PROTOCOL_DEFINITION('INTERNATIONAL STANDARD','automotive_design',1994,#15);
#4=PRODUCT_CATEGORY_RELATIONSHIP('NONE','NONE',#16,#17);
#5=SHAPE_DEFINITION_REPRESENTATION(#18,#19);
#6=SHAPE_DEFINITION_REPRESENTATION(#18,#20);
#7=SHAPE_DEFINITION_REPRESENTATION(#18,#21);
#8= (GEOMETRIC_REPRESENTATION_CONTEXT(3)GLOBAL_UNCERTAINTY_ASSIGNED_CONTEXT((#24))GLOBAL_UNIT_ASSIGNED_CONTEXT((#26,#27,#28))REPRESENTATION_CONTEXT('NONE','WORKSPACE'));
#12=STYLED_ITEM('',(#30),#31);
#13=STYLED_ITEM('',(#32),#33);
#14=STYLED_ITEM('',(#34),#35);
#15=APPLICATION_CONTEXT(' ');
#16=PRODUCT_CATEGORY('part','NONE');
#17=PRODUCT_RELATED_PRODUCT_CATEGORY('detail',' ',(#36));
#18=PRODUCT_DEFINITION_SHAPE('NONE','NONE',#37);
#19=ADVANCED_BREP_SHAPE_REPRESENTATION('1',(#31,#38),#8);
#20=ADVANCED_BREP_SHAPE_REPRESENTATION('2',(#33,#39),#8);
#21=ADVANCED_BREP_SHAPE_REPRESENTATION('3',(#35,#40),#8);
#24=UNCERTAINTY_MEASURE_WITH_UNIT(LENGTH_MEASURE(1.0E-06),#26,'','');
#26= (CONVERSION_BASED_UNIT('MILLIMETRE',#43)LENGTH_UNIT()NAMED_UNIT(#46));
#27= (NAMED_UNIT(#48)PLANE_ANGLE_UNIT()SI_UNIT($,.RADIAN.));
#28= (NAMED_UNIT(#48)SOLID_ANGLE_UNIT()SI_UNIT($,.STERADIAN.));
#30=PRESENTATION_STYLE_ASSIGNMENT((#54));
#31=MANIFOLD_SOLID_BREP('1',#55);
#32=PRESENTATION_STYLE_ASSIGNMENT((#56));
#33=MANIFOLD_SOLID_BREP('2',#57);
#34=PRESENTATION_STYLE_ASSIGNMENT((#58));
#35=MANIFOLD_SOLID_BREP('3',#59);
#36=PRODUCT('1','','PART--DESC',(#60));
#37=PRODUCT_DEFINITION('','NONE',#61,#2);
#38=AXIS2_PLACEMENT_3D('',#62,#63,#64);
#39=AXIS2_PLACEMENT_3D('',#65,#66,#67);
#40=AXIS2_PLACEMENT_3D('',#68,#69,#70);
#43=LENGTH_MEASURE_WITH_UNIT(LENGTH_MEASURE(1.0),#71);
#46=DIMENSIONAL_EXPONENTS(1.0,0.0,0.0,0.0,0.0,0.0,0.0);
#48=DIMENSIONAL_EXPONENTS(0.0,0.0,0.0,0.0,0.0,0.0,0.0);
#54=SURFACE_STYLE_USAGE(.BOTH.,#72);
#55=CLOSED_SHELL('',(#73,#74,#75,#76,#77,#78));
#56=SURFACE_STYLE_USAGE(.BOTH.,#79);
#57=CLOSED_SHELL('',(#80,#81,#82,#83));
#58=SURFACE_STYLE_USAGE(.BOTH.,#84);
#59=CLOSED_SHELL('',(#85,#86,#87,#88,#89));
#60=PRODUCT_CONTEXT('',#15,'mechanical');
#61=PRODUCT_DEFINITION_FORMATION_WITH_SPECIFIED_SOURCE(' ','NONE',#36,.NOT_KNOWN.);
#62=CARTESIAN_POINT('',(0.0,0.0,0.0));
#63=DIRECTION('',(0.0,0.0,1.0));
#64=DIRECTION('',(1.0,0.0,0.0));
#65=CARTESIAN_POINT('',(0.0,0.0,0.0));
#66=DIRECTION('',(0.0,0.0,1.0));
#67=DIRECTION('',(1.0,0.0,0.0));
#68=CARTESIAN_POINT('',(0.0,0.0,0.0));
#69=DIRECTION('',(0.0,0.0,1.0));
#70=DIRECTION('',(1.0,0.0,0.0));
#71= (NAMED_UNIT(#46)LENGTH_UNIT()SI_UNIT(.MILLI.,.METRE.));
#72=SURFACE_SIDE_STYLE('',(#91));
#73=ADVANCED_FACE('',(#92),#93,.T.);
#74=ADVANCED_FACE('',(#94),#95,.T.);
#75=ADVANCED_FACE('',(#96),#97,.T.);
#76=ADVANCED_FACE('',(#98),#99,.T.);
#77=ADVANCED_FACE('',(#100),#101,.T.);
#78=ADVANCED_FACE('',(#102),#103,.T.);
#79=SURFACE_SIDE_STYLE('',(#104));
#80=ADVANCED_FACE('',(#105),#106,.T.);
#81=ADVANCED_FACE('',(#107),#108,.T.);
#82=ADVANCED_FACE('',(#109),#110,.T.);
#83=ADVANCED_FACE('',(#111),#112,.T.);
#84=SURFACE_SIDE_STYLE('',(#113));
#85=ADVANCED_FACE('',(#114),#115,.T.);
#86=ADVANCED_FACE('',(#116),#117,.T.);
#87=ADVANCED_FACE('',(#118),#119,.T.);
#88=ADVANCED_FACE('',(#120),#121,.T.);
#89=ADVANCED_FACE('',(#122),#123,.T.);
#91=SURFACE_STYLE_FILL_AREA(#124);
#92=FACE_OUTER_BOUND('',#125,.T.);
#93=CYLINDRICAL_SURFACE('',#126,5.0);
#94=FACE_OUTER_BOUND('',#127,.T.);
#95=CONICAL_SURFACE('',#128,4.5,0.785398163397448);
#96=FACE_OUTER_BOUND('',#129,.T.);
#97=CONICAL_SURFACE('',#130,4.5,0.785398163397448);
#98=FACE_OUTER_BOUND('',#131,.T.);
#99=CYLINDRICAL_SURFACE('',#132,5.0);
#100=FACE_OUTER_BOUND('',#133,.T.);
#101=PLANE('',#134);
#102=FACE_OUTER_BOUND('',#135,.T.);
#103=PLANE('',#136);
#104=SURFACE_STYLE_FILL_AREA(#137);
#105=FACE_OUTER_BOUND('',#138,.T.);
#106=CYLINDRICAL_SURFACE('',#139,4.7);
#107=FACE_OUTER_BOUND('',#140,.T.);
#108=CYLINDRICAL_SURFACE('',#141,4.7);
#109=FACE_OUTER_BOUND('',#142,.T.);
#110=PLANE('',#143);
#111=FACE_OUTER_BOUND('',#144,.T.);
#112=PLANE('',#145);
#113=SURFACE_STYLE_FILL_AREA(#146);
#114=FACE_OUTER_BOUND('',#147,.T.);
#115=CYLINDRICAL_SURFACE('',#148,5.0);
#116=FACE_OUTER_BOUND('',#149,.T.);
#117=SPHERICAL_SURFACE('',#150,5.0);
#118=FACE_OUTER_BOUND('',#151,.T.);
#119=SPHERICAL_SURFACE('',#152,5.0);
#120=FACE_OUTER_BOUND('',#153,.T.);
#121=CYLINDRICAL_SURFACE('',#154,5.0);
#122=FACE_OUTER_BOUND('',#155,.T.);
#123=PLANE('',#156);
#124=FILL_AREA_STYLE('',(#157));
#125=EDGE_LOOP('',(#158,#159,#160,#161));
#126=AXIS2_PLACEMENT_3D('',#162,#163,#164);
#127=EDGE_LOOP('',(#165,#166,#167,#168));
#128=AXIS2_PLACEMENT_3D('',#169,#170,#171);
#129=EDGE_LOOP('',(#172,#173,#174,#175));
#130=AXIS2_PLACEMENT_3D('',#176,#177,#178);
#131=EDGE_LOOP('',(#179,#180,#181,#182));
#132=AXIS2_PLACEMENT_3D('',#183,#184,#185);
#133=EDGE_LOOP('',(#186,#187));
#134=AXIS2_PLACEMENT_3D('',#188,#189,#190);
#135=EDGE_LOOP('',(#191,#192));
#136=AXIS2_PLACEMENT_3D('',#193,#194,#195);
#137=FILL_AREA_STYLE('',(#196));
#138=EDGE_LOOP('',(#197,#198,#199,#200));
#139=AXIS2_PLACEMENT_3D('',#201,#202,#203);
#140=EDGE_LOOP('',(#204,#205,#206,#207));
#141=AXIS2_PLACEMENT_3D('',#208,#209,#210);
#142=EDGE_LOOP('',(#211,#212));
#143=AXIS2_PLACEMENT_3D('',#213,#214,#215);
#144=EDGE_LOOP('',(#216,#217));
#145=AXIS2_PLACEMENT_3D('',#218,#219,#220);
#146=FILL_AREA_STYLE('',(#221));
#147=EDGE_LOOP('',(#222,#223,#224,#225));
#148=AXIS2_PLACEMENT_3D('',#226,#227,#228);
#149=EDGE_LOOP('',(#229,#230,#231));
#150=AXIS2_PLACEMENT_3D('',#232,#233,#234);
#151=EDGE_LOOP('',(#235,#236,#237));
#152=AXIS2_PLACEMENT_3D('',#238,#239,#240);
#153=EDGE_LOOP('',(#241,#242,#243,#244));
#154=AXIS2_PLACEMENT_3D('',#245,#246,#247);
#155=EDGE_LOOP('',(#248,#249));
#156=AXIS2_PLACEMENT_3D('',#250,#251,#252);
#157=FILL_AREA_STYLE_COLOUR('',#253);
#158=ORIENTED_EDGE('',*,*,#254,.F.);
#159=ORIENTED_EDGE('',*,*,#255,.F.);
#160=ORIENTED_EDGE('',*,*,#256,.F.);
#161=ORIENTED_EDGE('',*,*,#257,.F.);
#162=CARTESIAN_POINT('',(0.0,0.0,-29.0));
#163=DIRECTION('',(0.0,0.0,-1.0));
#164=DIRECTION('',(1.0,0.0,0.0));
#165=ORIENTED_EDGE('',*,*,#258,.F.);
#166=ORIENTED_EDGE('',*,*,#255,.T.);
#167=ORIENTED_EDGE('',*,*,#259,.F.);
#168=ORIENTED_EDGE('',*,*,#260,.T.);
#169=CARTESIAN_POINT('',(0.0,0.0,0.0));
#170=DIRECTION('',(-0.0,-0.0,-1.0));
#171=DIRECTION('',(-1.0,0.0,0.0));
#172=ORIENTED_EDGE('',*,*,#258,.T.);
#173=ORIENTED_EDGE('',*,*,#261,.T.);
#174=ORIENTED_EDGE('',*,*,#259,.T.);
#175=ORIENTED_EDGE('',*,*,#262,.T.);
#176=CARTESIAN_POINT('',(0.0,0.0,0.0));
#177=DIRECTION('',(-0.0,-0.0,-1.0));
#178=DIRECTION('',(-1.0,0.0,0.0));
#179=ORIENTED_EDGE('',*,*,#254,.T.);
#180=ORIENTED_EDGE('',*,*,#263,.F.);
#181=ORIENTED_EDGE('',*,*,#256,.T.);
#182=ORIENTED_EDGE('',*,*,#262,.F.);
#183=CARTESIAN_POINT('',(0.0,0.0,-29.0));
#184=DIRECTION('',(0.0,0.0,-1.0));
#185=DIRECTION('',(1.0,0.0,0.0));
#186=ORIENTED_EDGE('',*,*,#260,.F.);
#187=ORIENTED_EDGE('',*,*,#261,.F.);
#188=CARTESIAN_POINT('',(0.0,0.0,0.0));
#189=DIRECTION('',(0.0,0.0,1.0));
#190=DIRECTION('',(-1.0,0.0,0.0));
#191=ORIENTED_EDGE('',*,*,#257,.T.);
#192=ORIENTED_EDGE('',*,*,#263,.T.);
#193=CARTESIAN_POINT('',(0.0,0.0,-58.0));
#194=DIRECTION('',(0.0,0.0,-1.0));
#195=DIRECTION('',(1.0,0.0,0.0));
#196=FILL_AREA_STYLE_COLOUR('',#264);
#197=ORIENTED_EDGE('',*,*,#265,.F.);
#198=ORIENTED_EDGE('',*,*,#266,.F.);
#199=ORIENTED_EDGE('',*,*,#267,.F.);
#200=ORIENTED_EDGE('',*,*,#268,.F.);
#201=CARTESIAN_POINT('',(0.0,0.0,-63.0));
#202=DIRECTION('',(0.0,0.0,-1.0));
#203=DIRECTION('',(1.0,0.0,0.0));
#204=ORIENTED_EDGE('',*,*,#265,.T.);
#205=ORIENTED_EDGE('',*,*,#269,.F.);
#206=ORIENTED_EDGE('',*,*,#267,.T.);
#207=ORIENTED_EDGE('',*,*,#270,.F.);
#208=CARTESIAN_POINT('',(0.0,0.0,-63.0));
#209=DIRECTION('',(0.0,0.0,-1.0));
#210=DIRECTION('',(1.0,0.0,0.0));
#211=ORIENTED_EDGE('',*,*,#270,.T.);
#212=ORIENTED_EDGE('',*,*,#266,.T.);
#213=CARTESIAN_POINT('',(0.0,0.0,-58.0));
#214=DIRECTION('',(0.0,0.0,1.0));
#215=DIRECTION('',(-1.0,0.0,0.0));
#216=ORIENTED_EDGE('',*,*,#268,.T.);
#217=ORIENTED_EDGE('',*,*,#269,.T.);
#218=CARTESIAN_POINT('',(0.0,0.0,-68.0));
#219=DIRECTION('',(0.0,0.0,-1.0));
#220=DIRECTION('',(1.0,0.0,0.0));
#221=FILL_AREA_STYLE_COLOUR('',#271);
#222=ORIENTED_EDGE('',*,*,#272,.F.);
#223=ORIENTED_EDGE('',*,*,#273,.F.);
#224=ORIENTED_EDGE('',*,*,#274,.F.);
#225=ORIENTED_EDGE('',*,*,#275,.F.);
#226=CARTESIAN_POINT('',(0.0,0.0,-73.0));
#227=DIRECTION('',(0.0,0.0,-1.0));
#228=DIRECTION('',(1.0,0.0,0.0));
#229=ORIENTED_EDGE('',*,*,#276,.F.);
#230=ORIENTED_EDGE('',*,*,#275,.T.);
#231=ORIENTED_EDGE('',*,*,#277,.F.);
#232=CARTESIAN_POINT('',(0.0,0.0,-73.0));
#233=DIRECTION('',(0.0,0.0,-1.0));
#234=DIRECTION('',(1.0,0.0,0.0));
#235=ORIENTED_EDGE('',*,*,#276,.T.);
#236=ORIENTED_EDGE('',*,*,#277,.T.);
#237=ORIENTED_EDGE('',*,*,#278,.T.);
#238=CARTESIAN_POINT('',(0.0,0.0,-73.0));
#239=DIRECTION('',(0.0,0.0,-1.0));
#240=DIRECTION('',(1.0,0.0,0.0));
#241=ORIENTED_EDGE('',*,*,#272,.T.);
#242=ORIENTED_EDGE('',*,*,#278,.F.);
#243=ORIENTED_EDGE('',*,*,#274,.T.);
#244=ORIENTED_EDGE('',*,*,#279,.F.);
#245=CARTESIAN_POINT('',(0.0,0.0,-73.0));
#246=DIRECTION('',(0.0,0.0,-1.0));
#247=DIRECTION('',(1.0,0.0,0.0));
#248=ORIENTED_EDGE('',*,*,#279,.T.);
#249=ORIENTED_EDGE('',*,*,#273,.T.);
#250=CARTESIAN_POINT('',(0.0,0.0,-68.0));
#251=DIRECTION('',(0.0,0.0,1.0));
#252=DIRECTION('',(-1.0,0.0,0.0));
#253=COLOUR_RGB('',0.756862759590149,0.756862759590149,0.756862759590149);
#254=EDGE_CURVE('',#280,#281,#282,.T.);
#255=EDGE_CURVE('',#283,#280,#284,.T.);
#256=EDGE_CURVE('',#285,#283,#286,.T.);
#257=EDGE_CURVE('',#281,#285,#287,.T.);
#258=EDGE_CURVE('',#283,#288,#289,.T.);
#259=EDGE_CURVE('',#290,#280,#291,.T.);
#260=EDGE_CURVE('',#290,#288,#292,.T.);
#261=EDGE_CURVE('',#288,#290,#293,.T.);
#262=EDGE_CURVE('',#280,#283,#294,.T.);
#263=EDGE_CURVE('',#285,#281,#295,.T.);
#264=COLOUR_RGB('',0.756862759590149,0.756862759590149,0.756862759590149);
#265=EDGE_CURVE('',#296,#297,#298,.T.);
#266=EDGE_CURVE('',#299,#296,#300,.T.);
#267=EDGE_CURVE('',#301,#299,#302,.T.);
#268=EDGE_CURVE('',#297,#301,#303,.T.);
#269=EDGE_CURVE('',#301,#297,#304,.T.);
#270=EDGE_CURVE('',#296,#299,#305,.T.);
#271=COLOUR_RGB('',0.0,1.0,0.0);
#272=EDGE_CURVE('',#306,#307,#308,.T.);
#273=EDGE_CURVE('',#309,#306,#310,.T.);
#274=EDGE_CURVE('',#311,#309,#312,.T.);
#275=EDGE_CURVE('',#307,#311,#313,.T.);
#276=EDGE_CURVE('',#307,#314,#315,.T.);
#277=EDGE_CURVE('',#314,#311,#316,.T.);
#278=EDGE_CURVE('',#311,#307,#317,.T.);
#279=EDGE_CURVE('',#306,#309,#318,.T.);
#280=VERTEX_POINT('',#319);
#281=VERTEX_POINT('',#320);
#282=LINE('',#321,#322);
#283=VERTEX_POINT('',#323);
#284=CIRCLE('',#324,5.0);
#285=VERTEX_POINT('',#325);
#286=LINE('',#326,#327);
#287=CIRCLE('',#328,5.0);
#288=VERTEX_POINT('',#329);
#289=LINE('',#330,#331);
#290=VERTEX_POINT('',#332);
#291=LINE('',#333,#334);
#292=CIRCLE('',#335,4.5);
#293=CIRCLE('',#336,4.5);
#294=CIRCLE('',#337,5.0);
#295=CIRCLE('',#338,5.0);
#296=VERTEX_POINT('',#339);
#297=VERTEX_POINT('',#340);
#298=LINE('',#341,#342);
#299=VERTEX_POINT('',#343);
#300=CIRCLE('',#344,4.7);
#301=VERTEX_POINT('',#345);
#302=LINE('',#346,#347);
#303=CIRCLE('',#348,4.7);
#304=CIRCLE('',#349,4.7);
#305=CIRCLE('',#350,4.7);
#306=VERTEX_POINT('',#351);
#307=VERTEX_POINT('',#352);
#308=LINE('',#353,#354);
#309=VERTEX_POINT('',#355);
#310=CIRCLE('',#356,5.0);
#311=VERTEX_POINT('',#357);
#312=LINE('',#358,#359);
#313=CIRCLE('',#360,5.0);
#314=VERTEX_POINT('',#361);
#315=CIRCLE('',#362,5.0);
#316=CIRCLE('',#363,5.0);
#317=CIRCLE('',#364,5.0);
#318=CIRCLE('',#365,5.0);
#319=CARTESIAN_POINT('',(5.0,6.12323399573676E-16,-0.499999999999996));
#320=CARTESIAN_POINT('',(5.0,0.0,-58.0));
#321=CARTESIAN_POINT('',(5.0,6.12323399573677E-16,-29.0));
#322=VECTOR('',#366,1.0);
#323=CARTESIAN_POINT('',(-5.0,6.12323399573677E-16,-0.499999999999996));
#324=AXIS2_PLACEMENT_3D('',#367,#368,#369);
#325=CARTESIAN_POINT('',(-5.0,-6.12323399573677E-16,-58.0));
#326=CARTESIAN_POINT('',(-5.0,-6.12323399573677E-16,-29.0));
#327=VECTOR('',#370,1.0);
#328=AXIS2_PLACEMENT_3D('',#371,#372,#373);
#329=CARTESIAN_POINT('',(-4.5,5.51091059616309E-16,0.0));
#330=CARTESIAN_POINT('',(-4.5,5.51091059616309E-16,0.0));
#331=VECTOR('',#374,1.0);
#332=CARTESIAN_POINT('',(4.5,-5.51091059616309E-16,0.0));
#333=CARTESIAN_POINT('',(4.5,-5.51091059616309E-16,0.0));
#334=VECTOR('',#375,1.0);
#335=AXIS2_PLACEMENT_3D('',#376,#377,#378);
#336=AXIS2_PLACEMENT_3D('',#379,#380,#381);
#337=AXIS2_PLACEMENT_3D('',#382,#383,#384);
#338=AXIS2_PLACEMENT_3D('',#385,#386,#387);
#339=CARTESIAN_POINT('',(4.7,0.0,-58.0));
#340=CARTESIAN_POINT('',(4.7,0.0,-68.0));
#341=CARTESIAN_POINT('',(4.7,5.75583995599256E-16,-63.0));
#342=VECTOR('',#388,1.0);
#343=CARTESIAN_POINT('',(-4.7,-5.75583995599256E-16,-58.0));
#344=AXIS2_PLACEMENT_3D('',#389,#390,#391);
#345=CARTESIAN_POINT('',(-4.7,-5.75583995599256E-16,-68.0));
#346=CARTESIAN_POINT('',(-4.7,-5.75583995599256E-16,-63.0));
#347=VECTOR('',#392,1.0);
#348=AXIS2_PLACEMENT_3D('',#393,#394,#395);
#349=AXIS2_PLACEMENT_3D('',#396,#397,#398);
#350=AXIS2_PLACEMENT_3D('',#399,#400,#401);
#351=CARTESIAN_POINT('',(5.0,0.0,-68.0));
#352=CARTESIAN_POINT('',(5.0,6.12323399573677E-16,-73.0));
#353=CARTESIAN_POINT('',(5.0,6.12323399573677E-16,-73.0));
#354=VECTOR('',#402,1.0);
#355=CARTESIAN_POINT('',(-5.0,-6.12323399573677E-16,-68.0));
#356=AXIS2_PLACEMENT_3D('',#403,#404,#405);
#357=CARTESIAN_POINT('',(-5.0,6.12323399573676E-16,-73.0));
#358=CARTESIAN_POINT('',(-5.0,-6.12323399573677E-16,-73.0));
#359=VECTOR('',#406,1.0);
#360=AXIS2_PLACEMENT_3D('',#407,#408,#409);
#361=CARTESIAN_POINT('',(0.0,0.0,-78.0));
#362=AXIS2_PLACEMENT_3D('',#410,#411,#412);
#363=AXIS2_PLACEMENT_3D('',#413,#414,#415);
#364=AXIS2_PLACEMENT_3D('',#416,#417,#418);
#365=AXIS2_PLACEMENT_3D('',#419,#420,#421);
#366=DIRECTION('',(0.0,0.0,-1.0));
#367=CARTESIAN_POINT('',(0.0,0.0,-0.499999999999996));
#368=DIRECTION('',(0.0,0.0,1.0));
#369=DIRECTION('',(-1.0,0.0,0.0));
#370=DIRECTION('',(-0.0,-0.0,1.0));
#371=CARTESIAN_POINT('',(0.0,0.0,-58.0));
#372=DIRECTION('',(0.0,0.0,-1.0));
#373=DIRECTION('',(1.0,0.0,0.0));
#374=DIRECTION('',(0.707106781186548,-8.65956056235493E-17,0.707106781186548));
#375=DIRECTION('',(0.707106781186548,-8.65956056235493E-17,-0.707106781186548));
#376=CARTESIAN_POINT('',(0.0,0.0,0.0));
#377=DIRECTION('',(0.0,0.0,-1.0));
#378=DIRECTION('',(-1.0,0.0,0.0));
#379=CARTESIAN_POINT('',(0.0,0.0,0.0));
#380=DIRECTION('',(0.0,0.0,-1.0));
#381=DIRECTION('',(-1.0,0.0,0.0));
#382=CARTESIAN_POINT('',(0.0,0.0,-0.499999999999996));
#383=DIRECTION('',(0.0,0.0,1.0));
#384=DIRECTION('',(-1.0,0.0,0.0));
#385=CARTESIAN_POINT('',(0.0,0.0,-58.0));
#386=DIRECTION('',(0.0,0.0,-1.0));
#387=DIRECTION('',(1.0,0.0,0.0));
#388=DIRECTION('',(0.0,0.0,-1.0));
#389=CARTESIAN_POINT('',(0.0,0.0,-58.0));
#390=DIRECTION('',(0.0,0.0,1.0));
#391=DIRECTION('',(1.0,0.0,0.0));
#392=DIRECTION('',(-0.0,-0.0,1.0));
#393=CARTESIAN_POINT('',(0.0,0.0,-68.0));
#394=DIRECTION('',(0.0,0.0,-1.0));
#395=DIRECTION('',(1.0,0.0,0.0));
#396=CARTESIAN_POINT('',(0.0,0.0,-68.0));
#397=DIRECTION('',(0.0,0.0,-1.0));
#398=DIRECTION('',(1.0,0.0,0.0));
#399=CARTESIAN_POINT('',(0.0,0.0,-58.0));
#400=DIRECTION('',(0.0,0.0,1.0));
#401=DIRECTION('',(1.0,0.0,0.0));
#402=DIRECTION('',(0.0,0.0,-1.0));
#403=CARTESIAN_POINT('',(0.0,0.0,-68.0));
#404=DIRECTION('',(0.0,0.0,1.0));
#405=DIRECTION('',(1.0,0.0,0.0));
#406=DIRECTION('',(-0.0,-0.0,1.0));
#407=CARTESIAN_POINT('',(0.0,0.0,-73.0));
#408=DIRECTION('',(0.0,0.0,-1.0));
#409=DIRECTION('',(1.0,0.0,0.0));
#410=CARTESIAN_POINT('',(0.0,0.0,-73.0));
#411=DIRECTION('',(-1.22464679914735E-16,1.0,0.0));
#412=DIRECTION('',(0.0,0.0,-1.0));
#413=CARTESIAN_POINT('',(0.0,0.0,-73.0));
#414=DIRECTION('',(-1.22464679914735E-16,1.0,0.0));
#415=DIRECTION('',(0.0,0.0,-1.0));
#416=CARTESIAN_POINT('',(0.0,0.0,-73.0));
#417=DIRECTION('',(0.0,0.0,-1.0));
#418=DIRECTION('',(1.0,0.0,0.0));
#419=CARTESIAN_POINT('',(0.0,0.0,-68.0));
#420=DIRECTION('',(0.0,0.0,1.0));
#421=DIRECTION('',(1.0,0.0,0.0));
ENDSEC;
END-ISO-10303-21;
