ISO-10303-21;
HEADER;
FILE_DESCRIPTION(('STEP AP214'),'1');
FILE_NAME('R1616B32_FC.stp','2024-04-03T17:21:19',(' '),(' '),'Spatial InterOp 3D',' ',' ');
FILE_SCHEMA(('AUTOMOTIVE_DESIGN { 1 0 10303 214 1 1 1 1 }'));
ENDSEC;
DATA;
#1=MECHANICAL_DESIGN_GEOMETRIC_PRESENTATION_REPRESENTATION(' ',(#11,#12),#7);
#2=PRODUCT_DEFINITION_CONTEXT('',#13,'design');
#3=APPLICATION_PROTOCOL_DEFINITION('INTERNATIONAL STANDARD','automotive_design',1994,#13);
#4=PRODUCT_CATEGORY_RELATIONSHIP('NONE','NONE',#14,#15);
#5=SHAPE_DEFINITION_REPRESENTATION(#16,#17);
#6=SHAPE_DEFINITION_REPRESENTATION(#16,#18);
#7= (GEOMETRIC_REPRESENTATION_CONTEXT(3)GLOBAL_UNCERTAINTY_ASSIGNED_CONTEXT((#21))GLOBAL_UNIT_ASSIGNED_CONTEXT((#23,#24,#25))REPRESENTATION_CONTEXT('NONE','WORKSPACE'));
#11=STYLED_ITEM('',(#27),#28);
#12=STYLED_ITEM('',(#29),#30);
#13=APPLICATION_CONTEXT(' ');
#14=PRODUCT_CATEGORY('part','NONE');
#15=PRODUCT_RELATED_PRODUCT_CATEGORY('detail',' ',(#31));
#16=PRODUCT_DEFINITION_SHAPE('NONE','NONE',#32);
#17=ADVANCED_BREP_SHAPE_REPRESENTATION('1',(#28,#33),#7);
#18=ADVANCED_BREP_SHAPE_REPRESENTATION('2',(#30,#34),#7);
#21=UNCERTAINTY_MEASURE_WITH_UNIT(LENGTH_MEASURE(1.0E-06),#23,'','');
#23= (CONVERSION_BASED_UNIT('MILLIMETRE',#37)LENGTH_UNIT()NAMED_UNIT(#40));
#24= (NAMED_UNIT(#42)PLANE_ANGLE_UNIT()SI_UNIT($,.RADIAN.));
#25= (NAMED_UNIT(#42)SOLID_ANGLE_UNIT()SI_UNIT($,.STERADIAN.));
#27=PRESENTATION_STYLE_ASSIGNMENT((#48));
#28=MANIFOLD_SOLID_BREP('1',#49);
#29=PRESENTATION_STYLE_ASSIGNMENT((#50));
#30=MANIFOLD_SOLID_BREP('2',#51);
#31=PRODUCT('1','','PART--DESC',(#52));
#32=PRODUCT_DEFINITION('','NONE',#53,#2);
#33=AXIS2_PLACEMENT_3D('',#54,#55,#56);
#34=AXIS2_PLACEMENT_3D('',#57,#58,#59);
#37=LENGTH_MEASURE_WITH_UNIT(LENGTH_MEASURE(1.0),#60);
#40=DIMENSIONAL_EXPONENTS(1.0,0.0,0.0,0.0,0.0,0.0,0.0);
#42=DIMENSIONAL_EXPONENTS(0.0,0.0,0.0,0.0,0.0,0.0,0.0);
#48=SURFACE_STYLE_USAGE(.BOTH.,#61);
#49=CLOSED_SHELL('',(#62,#63,#64,#65,#66,#67));
#50=SURFACE_STYLE_USAGE(.BOTH.,#68);
#51=CLOSED_SHELL('',(#69,#70,#71,#72,#73));
#52=PRODUCT_CONTEXT('',#13,'mechanical');
#53=PRODUCT_DEFINITION_FORMATION_WITH_SPECIFIED_SOURCE(' ','NONE',#31,.NOT_KNOWN.);
#54=CARTESIAN_POINT('',(0.0,0.0,0.0));
#55=DIRECTION('',(0.0,0.0,1.0));
#56=DIRECTION('',(1.0,0.0,0.0));
#57=CARTESIAN_POINT('',(0.0,0.0,0.0));
#58=DIRECTION('',(0.0,0.0,1.0));
#59=DIRECTION('',(1.0,0.0,0.0));
#60= (NAMED_UNIT(#40)LENGTH_UNIT()SI_UNIT(.MILLI.,.METRE.));
#61=SURFACE_SIDE_STYLE('',(#75));
#62=ADVANCED_FACE('',(#76),#77,.T.);
#63=ADVANCED_FACE('',(#78),#79,.T.);
#64=ADVANCED_FACE('',(#80),#81,.T.);
#65=ADVANCED_FACE('',(#82),#83,.T.);
#66=ADVANCED_FACE('',(#84),#85,.T.);
#67=ADVANCED_FACE('',(#86),#87,.T.);
#68=SURFACE_SIDE_STYLE('',(#88));
#69=ADVANCED_FACE('',(#89),#90,.T.);
#70=ADVANCED_FACE('',(#91),#92,.T.);
#71=ADVANCED_FACE('',(#93),#94,.T.);
#72=ADVANCED_FACE('',(#95),#96,.T.);
#73=ADVANCED_FACE('',(#97),#98,.F.);
#75=SURFACE_STYLE_FILL_AREA(#99);
#76=FACE_OUTER_BOUND('',#100,.T.);
#77=CYLINDRICAL_SURFACE('',#101,8.0);
#78=FACE_OUTER_BOUND('',#102,.T.);
#79=CONICAL_SURFACE('',#103,7.2,0.785398163397448);
#80=FACE_OUTER_BOUND('',#104,.T.);
#81=CONICAL_SURFACE('',#105,7.2,0.785398163397448);
#82=FACE_OUTER_BOUND('',#106,.T.);
#83=CYLINDRICAL_SURFACE('',#107,8.0);
#84=FACE_OUTER_BOUND('',#108,.T.);
#85=PLANE('',#109);
#86=FACE_OUTER_BOUND('',#110,.T.);
#87=PLANE('',#111);
#88=SURFACE_STYLE_FILL_AREA(#112);
#89=FACE_OUTER_BOUND('',#113,.T.);
#90=CYLINDRICAL_SURFACE('',#114,8.0);
#91=FACE_OUTER_BOUND('',#115,.T.);
#92=SPHERICAL_SURFACE('',#116,8.0);
#93=FACE_OUTER_BOUND('',#117,.T.);
#94=SPHERICAL_SURFACE('',#118,8.0);
#95=FACE_OUTER_BOUND('',#119,.T.);
#96=CYLINDRICAL_SURFACE('',#120,8.0);
#97=FACE_OUTER_BOUND('',#121,.T.);
#98=PLANE('',#122);
#99=FILL_AREA_STYLE('',(#123));
#100=EDGE_LOOP('',(#124,#125,#126,#127));
#101=AXIS2_PLACEMENT_3D('',#128,#129,#130);
#102=EDGE_LOOP('',(#131,#132,#133,#134));
#103=AXIS2_PLACEMENT_3D('',#135,#136,#137);
#104=EDGE_LOOP('',(#138,#139,#140,#141));
#105=AXIS2_PLACEMENT_3D('',#142,#143,#144);
#106=EDGE_LOOP('',(#145,#146,#147,#148));
#107=AXIS2_PLACEMENT_3D('',#149,#150,#151);
#108=EDGE_LOOP('',(#152,#153));
#109=AXIS2_PLACEMENT_3D('',#154,#155,#156);
#110=EDGE_LOOP('',(#157,#158));
#111=AXIS2_PLACEMENT_3D('',#159,#160,#161);
#112=FILL_AREA_STYLE('',(#162));
#113=EDGE_LOOP('',(#163,#164,#165,#166));
#114=AXIS2_PLACEMENT_3D('',#167,#168,#169);
#115=EDGE_LOOP('',(#170,#171,#172));
#116=AXIS2_PLACEMENT_3D('',#173,#174,#175);
#117=EDGE_LOOP('',(#176,#177,#178));
#118=AXIS2_PLACEMENT_3D('',#179,#180,#181);
#119=EDGE_LOOP('',(#182,#183,#184,#185));
#120=AXIS2_PLACEMENT_3D('',#186,#187,#188);
#121=EDGE_LOOP('',(#189,#190));
#122=AXIS2_PLACEMENT_3D('',#191,#192,#193);
#123=FILL_AREA_STYLE_COLOUR('',#194);
#124=ORIENTED_EDGE('',*,*,#195,.F.);
#125=ORIENTED_EDGE('',*,*,#196,.F.);
#126=ORIENTED_EDGE('',*,*,#197,.F.);
#127=ORIENTED_EDGE('',*,*,#198,.F.);
#128=CARTESIAN_POINT('',(0.0,0.0,-28.0));
#129=DIRECTION('',(0.0,0.0,-1.0));
#130=DIRECTION('',(1.0,0.0,0.0));
#131=ORIENTED_EDGE('',*,*,#199,.F.);
#132=ORIENTED_EDGE('',*,*,#196,.T.);
#133=ORIENTED_EDGE('',*,*,#200,.F.);
#134=ORIENTED_EDGE('',*,*,#201,.T.);
#135=CARTESIAN_POINT('',(0.0,0.0,0.0));
#136=DIRECTION('',(-0.0,-0.0,-1.0));
#137=DIRECTION('',(-1.0,0.0,0.0));
#138=ORIENTED_EDGE('',*,*,#199,.T.);
#139=ORIENTED_EDGE('',*,*,#202,.T.);
#140=ORIENTED_EDGE('',*,*,#200,.T.);
#141=ORIENTED_EDGE('',*,*,#203,.T.);
#142=CARTESIAN_POINT('',(0.0,0.0,0.0));
#143=DIRECTION('',(-0.0,-0.0,-1.0));
#144=DIRECTION('',(-1.0,0.0,0.0));
#145=ORIENTED_EDGE('',*,*,#195,.T.);
#146=ORIENTED_EDGE('',*,*,#204,.F.);
#147=ORIENTED_EDGE('',*,*,#197,.T.);
#148=ORIENTED_EDGE('',*,*,#203,.F.);
#149=CARTESIAN_POINT('',(0.0,0.0,-28.0));
#150=DIRECTION('',(0.0,0.0,-1.0));
#151=DIRECTION('',(1.0,0.0,0.0));
#152=ORIENTED_EDGE('',*,*,#201,.F.);
#153=ORIENTED_EDGE('',*,*,#202,.F.);
#154=CARTESIAN_POINT('',(0.0,0.0,0.0));
#155=DIRECTION('',(0.0,0.0,1.0));
#156=DIRECTION('',(-1.0,0.0,0.0));
#157=ORIENTED_EDGE('',*,*,#198,.T.);
#158=ORIENTED_EDGE('',*,*,#204,.T.);
#159=CARTESIAN_POINT('',(0.0,0.0,-56.0));
#160=DIRECTION('',(0.0,0.0,-1.0));
#161=DIRECTION('',(1.0,0.0,0.0));
#162=FILL_AREA_STYLE_COLOUR('',#205);
#163=ORIENTED_EDGE('',*,*,#206,.F.);
#164=ORIENTED_EDGE('',*,*,#207,.T.);
#165=ORIENTED_EDGE('',*,*,#208,.F.);
#166=ORIENTED_EDGE('',*,*,#209,.F.);
#167=CARTESIAN_POINT('',(0.0,0.0,-56.0));
#168=DIRECTION('',(0.0,0.0,-1.0));
#169=DIRECTION('',(1.0,0.0,0.0));
#170=ORIENTED_EDGE('',*,*,#210,.F.);
#171=ORIENTED_EDGE('',*,*,#211,.T.);
#172=ORIENTED_EDGE('',*,*,#212,.F.);
#173=CARTESIAN_POINT('',(0.0,0.0,-80.0));
#174=DIRECTION('',(-0.0,0.0,1.0));
#175=DIRECTION('',(1.0,0.0,0.0));
#176=ORIENTED_EDGE('',*,*,#210,.T.);
#177=ORIENTED_EDGE('',*,*,#212,.T.);
#178=ORIENTED_EDGE('',*,*,#209,.T.);
#179=CARTESIAN_POINT('',(0.0,0.0,-80.0));
#180=DIRECTION('',(-0.0,0.0,1.0));
#181=DIRECTION('',(1.0,0.0,0.0));
#182=ORIENTED_EDGE('',*,*,#206,.T.);
#183=ORIENTED_EDGE('',*,*,#211,.F.);
#184=ORIENTED_EDGE('',*,*,#208,.T.);
#185=ORIENTED_EDGE('',*,*,#213,.T.);
#186=CARTESIAN_POINT('',(0.0,0.0,-56.0));
#187=DIRECTION('',(0.0,0.0,-1.0));
#188=DIRECTION('',(1.0,0.0,0.0));
#189=ORIENTED_EDGE('',*,*,#207,.F.);
#190=ORIENTED_EDGE('',*,*,#213,.F.);
#191=CARTESIAN_POINT('',(0.0,0.0,-56.0));
#192=DIRECTION('',(0.0,0.0,-1.0));
#193=DIRECTION('',(1.0,0.0,0.0));
#194=COLOUR_RGB('',0.756862759590149,0.756862759590149,0.756862759590149);
#195=EDGE_CURVE('',#214,#215,#216,.T.);
#196=EDGE_CURVE('',#217,#214,#218,.T.);
#197=EDGE_CURVE('',#219,#217,#220,.T.);
#198=EDGE_CURVE('',#215,#219,#221,.T.);
#199=EDGE_CURVE('',#217,#222,#223,.T.);
#200=EDGE_CURVE('',#224,#214,#225,.T.);
#201=EDGE_CURVE('',#224,#222,#226,.T.);
#202=EDGE_CURVE('',#222,#224,#227,.T.);
#203=EDGE_CURVE('',#214,#217,#228,.T.);
#204=EDGE_CURVE('',#219,#215,#229,.T.);
#205=COLOUR_RGB('',0.0,1.0,0.0);
#206=EDGE_CURVE('',#230,#231,#232,.T.);
#207=EDGE_CURVE('',#230,#233,#234,.T.);
#208=EDGE_CURVE('',#235,#233,#236,.T.);
#209=EDGE_CURVE('',#231,#235,#237,.T.);
#210=EDGE_CURVE('',#235,#238,#239,.T.);
#211=EDGE_CURVE('',#235,#231,#240,.T.);
#212=EDGE_CURVE('',#238,#231,#241,.T.);
#213=EDGE_CURVE('',#233,#230,#242,.T.);
#214=VERTEX_POINT('',#243);
#215=VERTEX_POINT('',#244);
#216=LINE('',#245,#246);
#217=VERTEX_POINT('',#247);
#218=CIRCLE('',#248,8.0);
#219=VERTEX_POINT('',#249);
#220=LINE('',#250,#251);
#221=CIRCLE('',#252,8.0);
#222=VERTEX_POINT('',#253);
#223=LINE('',#254,#255);
#224=VERTEX_POINT('',#256);
#225=LINE('',#257,#258);
#226=CIRCLE('',#259,7.2);
#227=CIRCLE('',#260,7.2);
#228=CIRCLE('',#261,8.0);
#229=CIRCLE('',#262,8.0);
#230=VERTEX_POINT('',#263);
#231=VERTEX_POINT('',#264);
#232=LINE('',#265,#266);
#233=VERTEX_POINT('',#267);
#234=CIRCLE('',#268,8.0);
#235=VERTEX_POINT('',#269);
#236=LINE('',#270,#271);
#237=CIRCLE('',#272,8.0);
#238=VERTEX_POINT('',#273);
#239=CIRCLE('',#274,8.0);
#240=CIRCLE('',#275,8.0);
#241=CIRCLE('',#276,8.0);
#242=CIRCLE('',#277,8.0);
#243=CARTESIAN_POINT('',(8.0,9.79717439317882E-16,-0.800000000000001));
#244=CARTESIAN_POINT('',(8.0,0.0,-56.0));
#245=CARTESIAN_POINT('',(8.0,9.79717439317882E-16,-28.0));
#246=VECTOR('',#278,1.0);
#247=CARTESIAN_POINT('',(-8.0,9.79717439317882E-16,-0.800000000000001));
#248=AXIS2_PLACEMENT_3D('',#279,#280,#281);
#249=CARTESIAN_POINT('',(-8.0,-9.79717439317882E-16,-56.0));
#250=CARTESIAN_POINT('',(-8.0,-9.79717439317882E-16,-28.0));
#251=VECTOR('',#282,1.0);
#252=AXIS2_PLACEMENT_3D('',#283,#284,#285);
#253=CARTESIAN_POINT('',(-7.2,8.81745695386094E-16,0.0));
#254=CARTESIAN_POINT('',(-7.2,8.81745695386094E-16,0.0));
#255=VECTOR('',#286,1.0);
#256=CARTESIAN_POINT('',(7.2,-8.81745695386094E-16,0.0));
#257=CARTESIAN_POINT('',(7.2,-8.81745695386094E-16,0.0));
#258=VECTOR('',#287,1.0);
#259=AXIS2_PLACEMENT_3D('',#288,#289,#290);
#260=AXIS2_PLACEMENT_3D('',#291,#292,#293);
#261=AXIS2_PLACEMENT_3D('',#294,#295,#296);
#262=AXIS2_PLACEMENT_3D('',#297,#298,#299);
#263=CARTESIAN_POINT('',(8.0,0.0,-56.0));
#264=CARTESIAN_POINT('',(8.0,-9.79717439317882E-16,-80.0));
#265=CARTESIAN_POINT('',(8.0,9.79717439317882E-16,-56.0));
#266=VECTOR('',#300,1.0);
#267=CARTESIAN_POINT('',(-8.0,-9.79717439317882E-16,-56.0));
#268=AXIS2_PLACEMENT_3D('',#301,#302,#303);
#269=CARTESIAN_POINT('',(-8.0,9.79717439317882E-16,-80.0));
#270=CARTESIAN_POINT('',(-8.0,-9.79717439317882E-16,-56.0));
#271=VECTOR('',#304,1.0);
#272=AXIS2_PLACEMENT_3D('',#305,#306,#307);
#273=CARTESIAN_POINT('',(0.0,0.0,-88.0));
#274=AXIS2_PLACEMENT_3D('',#308,#309,#310);
#275=AXIS2_PLACEMENT_3D('',#311,#312,#313);
#276=AXIS2_PLACEMENT_3D('',#314,#315,#316);
#277=AXIS2_PLACEMENT_3D('',#317,#318,#319);
#278=DIRECTION('',(0.0,0.0,-1.0));
#279=CARTESIAN_POINT('',(0.0,0.0,-0.800000000000001));
#280=DIRECTION('',(0.0,0.0,1.0));
#281=DIRECTION('',(-1.0,0.0,0.0));
#282=DIRECTION('',(-0.0,-0.0,1.0));
#283=CARTESIAN_POINT('',(0.0,0.0,-56.0));
#284=DIRECTION('',(0.0,0.0,-1.0));
#285=DIRECTION('',(1.0,0.0,0.0));
#286=DIRECTION('',(0.707106781186548,-8.65956056235493E-17,0.707106781186548));
#287=DIRECTION('',(0.707106781186548,-8.65956056235493E-17,-0.707106781186548));
#288=CARTESIAN_POINT('',(0.0,0.0,0.0));
#289=DIRECTION('',(0.0,0.0,-1.0));
#290=DIRECTION('',(-1.0,0.0,0.0));
#291=CARTESIAN_POINT('',(0.0,0.0,0.0));
#292=DIRECTION('',(0.0,0.0,-1.0));
#293=DIRECTION('',(-1.0,0.0,0.0));
#294=CARTESIAN_POINT('',(0.0,0.0,-0.800000000000001));
#295=DIRECTION('',(0.0,0.0,1.0));
#296=DIRECTION('',(-1.0,0.0,0.0));
#297=CARTESIAN_POINT('',(0.0,0.0,-56.0));
#298=DIRECTION('',(0.0,0.0,-1.0));
#299=DIRECTION('',(1.0,0.0,0.0));
#300=DIRECTION('',(0.0,0.0,-1.0));
#301=CARTESIAN_POINT('',(0.0,0.0,-56.0));
#302=DIRECTION('',(0.0,0.0,-1.0));
#303=DIRECTION('',(1.0,0.0,0.0));
#304=DIRECTION('',(-0.0,-0.0,1.0));
#305=CARTESIAN_POINT('',(0.0,0.0,-80.0));
#306=DIRECTION('',(0.0,0.0,-1.0));
#307=DIRECTION('',(1.0,0.0,0.0));
#308=CARTESIAN_POINT('',(0.0,0.0,-80.0));
#309=DIRECTION('',(-1.22464679914735E-16,-1.0,0.0));
#310=DIRECTION('',(0.0,0.0,1.0));
#311=CARTESIAN_POINT('',(0.0,0.0,-80.0));
#312=DIRECTION('',(0.0,0.0,-1.0));
#313=DIRECTION('',(1.0,0.0,0.0));
#314=CARTESIAN_POINT('',(0.0,0.0,-80.0));
#315=DIRECTION('',(-1.22464679914735E-16,-1.0,0.0));
#316=DIRECTION('',(0.0,0.0,1.0));
#317=CARTESIAN_POINT('',(0.0,0.0,-56.0));
#318=DIRECTION('',(0.0,0.0,-1.0));
#319=DIRECTION('',(1.0,0.0,0.0));
ENDSEC;
END-ISO-10303-21;
