ISO-10303-21;
HEADER;
FILE_DESCRIPTION(('STEP AP214'),'1');
FILE_NAME('R0604B8_LC.stp','2024-04-03T14:45:18',(' '),(' '),'Spatial InterOp 3D',' ',' ');
FILE_SCHEMA(('AUTOMOTIVE_DESIGN { 1 0 10303 214 1 1 1 1 }'));
ENDSEC;
DATA;
#1=MECHANICAL_DESIGN_GEOMETRIC_PRESENTATION_REPRESENTATION(' ',(#11,#12),#7);
#2=PRODUCT_DEFINITION_CONTEXT('',#13,'design');
#3=APPLICATION_PROTOCOL_DEFINITION('INTERNATIONAL STANDARD','automotive_design',1994,#13);
#4=PRODUCT_CATEGORY_RELATIONSHIP('NONE','NONE',#14,#15);
#5=SHAPE_DEFINITION_REPRESENTATION(#16,#17);
#6=SHAPE_DEFINITION_REPRESENTATION(#16,#18);
#7= (GEOMETRIC_REPRESENTATION_CONTEXT(3)GLOBAL_UNCERTAINTY_ASSIGNED_CONTEXT((#21))GLOBAL_UNIT_ASSIGNED_CONTEXT((#23,#24,#25))REPRESENTATION_CONTEXT('NONE','WORKSPACE'));
#11=STYLED_ITEM('',(#27),#28);
#12=STYLED_ITEM('',(#29),#30);
#13=APPLICATION_CONTEXT(' ');
#14=PRODUCT_CATEGORY('part','NONE');
#15=PRODUCT_RELATED_PRODUCT_CATEGORY('detail',' ',(#31));
#16=PRODUCT_DEFINITION_SHAPE('NONE','NONE',#32);
#17=ADVANCED_BREP_SHAPE_REPRESENTATION('1',(#28,#33),#7);
#18=ADVANCED_BREP_SHAPE_REPRESENTATION('2',(#30,#34),#7);
#21=UNCERTAINTY_MEASURE_WITH_UNIT(LENGTH_MEASURE(1.0E-06),#23,'','');
#23= (CONVERSION_BASED_UNIT('MILLIMETRE',#37)LENGTH_UNIT()NAMED_UNIT(#40));
#24= (NAMED_UNIT(#42)PLANE_ANGLE_UNIT()SI_UNIT($,.RADIAN.));
#25= (NAMED_UNIT(#42)SOLID_ANGLE_UNIT()SI_UNIT($,.STERADIAN.));
#27=PRESENTATION_STYLE_ASSIGNMENT((#48));
#28=MANIFOLD_SOLID_BREP('1',#49);
#29=PRESENTATION_STYLE_ASSIGNMENT((#50));
#30=MANIFOLD_SOLID_BREP('2',#51);
#31=PRODUCT('1','','PART--DESC',(#52));
#32=PRODUCT_DEFINITION('','NONE',#53,#2);
#33=AXIS2_PLACEMENT_3D('',#54,#55,#56);
#34=AXIS2_PLACEMENT_3D('',#57,#58,#59);
#37=LENGTH_MEASURE_WITH_UNIT(LENGTH_MEASURE(1.0),#60);
#40=DIMENSIONAL_EXPONENTS(1.0,0.0,0.0,0.0,0.0,0.0,0.0);
#42=DIMENSIONAL_EXPONENTS(0.0,0.0,0.0,0.0,0.0,0.0,0.0);
#48=SURFACE_STYLE_USAGE(.BOTH.,#61);
#49=CLOSED_SHELL('',(#62,#63,#64,#65,#66,#67,#68,#69));
#50=SURFACE_STYLE_USAGE(.BOTH.,#70);
#51=CLOSED_SHELL('',(#71,#72,#73));
#52=PRODUCT_CONTEXT('',#13,'mechanical');
#53=PRODUCT_DEFINITION_FORMATION_WITH_SPECIFIED_SOURCE(' ','NONE',#31,.NOT_KNOWN.);
#54=CARTESIAN_POINT('',(0.0,0.0,0.0));
#55=DIRECTION('',(0.0,0.0,1.0));
#56=DIRECTION('',(1.0,0.0,0.0));
#57=CARTESIAN_POINT('',(0.0,0.0,0.0));
#58=DIRECTION('',(0.0,0.0,1.0));
#59=DIRECTION('',(1.0,0.0,0.0));
#60= (NAMED_UNIT(#40)LENGTH_UNIT()SI_UNIT(.MILLI.,.METRE.));
#61=SURFACE_SIDE_STYLE('',(#75));
#62=ADVANCED_FACE('',(#76),#77,.T.);
#63=ADVANCED_FACE('',(#78),#79,.T.);
#64=ADVANCED_FACE('',(#80),#81,.T.);
#65=ADVANCED_FACE('',(#82),#83,.T.);
#66=ADVANCED_FACE('',(#84),#85,.T.);
#67=ADVANCED_FACE('',(#86),#87,.T.);
#68=ADVANCED_FACE('',(#88),#89,.T.);
#69=ADVANCED_FACE('',(#90),#91,.T.);
#70=SURFACE_SIDE_STYLE('',(#92));
#71=ADVANCED_FACE('',(#93),#94,.T.);
#72=ADVANCED_FACE('',(#95,#96),#97,.T.);
#73=ADVANCED_FACE('',(#98),#99,.F.);
#75=SURFACE_STYLE_FILL_AREA(#100);
#76=FACE_OUTER_BOUND('',#101,.T.);
#77=CONICAL_SURFACE('',#102,2.6,0.785398163397448);
#78=FACE_OUTER_BOUND('',#103,.T.);
#79=CYLINDRICAL_SURFACE('',#104,3.0);
#80=FACE_OUTER_BOUND('',#105,.T.);
#81=CONICAL_SURFACE('',#106,2.00001361384705,0.26179938779915);
#82=FACE_OUTER_BOUND('',#107,.T.);
#83=CONICAL_SURFACE('',#108,2.00001361384705,0.26179938779915);
#84=FACE_OUTER_BOUND('',#109,.T.);
#85=CYLINDRICAL_SURFACE('',#110,3.0);
#86=FACE_OUTER_BOUND('',#111,.T.);
#87=PLANE('',#112);
#88=FACE_OUTER_BOUND('',#113,.T.);
#89=CONICAL_SURFACE('',#114,2.6,0.785398163397448);
#90=FACE_OUTER_BOUND('',#115,.T.);
#91=PLANE('',#116);
#92=SURFACE_STYLE_FILL_AREA(#117);
#93=FACE_OUTER_BOUND('',#118,.T.);
#94=SPHERICAL_SURFACE('',#119,2.0);
#95=FACE_BOUND('',#120,.T.);
#96=FACE_BOUND('',#121,.T.);
#97=CYLINDRICAL_SURFACE('',#122,2.00001361384705);
#98=FACE_OUTER_BOUND('',#123,.T.);
#99=PLANE('',#124);
#100=FILL_AREA_STYLE('',(#125));
#101=EDGE_LOOP('',(#126,#127,#128,#129));
#102=AXIS2_PLACEMENT_3D('',#130,#131,#132);
#103=EDGE_LOOP('',(#133,#134,#135,#136));
#104=AXIS2_PLACEMENT_3D('',#137,#138,#139);
#105=EDGE_LOOP('',(#140,#141,#142,#143));
#106=AXIS2_PLACEMENT_3D('',#144,#145,#146);
#107=EDGE_LOOP('',(#147,#148,#149,#150));
#108=AXIS2_PLACEMENT_3D('',#151,#152,#153);
#109=EDGE_LOOP('',(#154,#155,#156,#157));
#110=AXIS2_PLACEMENT_3D('',#158,#159,#160);
#111=EDGE_LOOP('',(#161,#162));
#112=AXIS2_PLACEMENT_3D('',#163,#164,#165);
#113=EDGE_LOOP('',(#166,#167,#168,#169));
#114=AXIS2_PLACEMENT_3D('',#170,#171,#172);
#115=EDGE_LOOP('',(#173,#174));
#116=AXIS2_PLACEMENT_3D('',#175,#176,#177);
#117=FILL_AREA_STYLE('',(#178));
#118=EDGE_LOOP('',(#179,#180));
#119=AXIS2_PLACEMENT_3D('',#181,#182,#183);
#120=EDGE_LOOP('',(#184,#185));
#121=EDGE_LOOP('',(#186,#187));
#122=AXIS2_PLACEMENT_3D('',#188,#189,#190);
#123=EDGE_LOOP('',(#191,#192));
#124=AXIS2_PLACEMENT_3D('',#193,#194,#195);
#125=FILL_AREA_STYLE_COLOUR('',#196);
#126=ORIENTED_EDGE('',*,*,#197,.F.);
#127=ORIENTED_EDGE('',*,*,#198,.T.);
#128=ORIENTED_EDGE('',*,*,#199,.F.);
#129=ORIENTED_EDGE('',*,*,#200,.T.);
#130=CARTESIAN_POINT('',(0.0,0.0,0.0));
#131=DIRECTION('',(-0.0,-0.0,-1.0));
#132=DIRECTION('',(-1.0,0.0,0.0));
#133=ORIENTED_EDGE('',*,*,#201,.F.);
#134=ORIENTED_EDGE('',*,*,#198,.F.);
#135=ORIENTED_EDGE('',*,*,#202,.F.);
#136=ORIENTED_EDGE('',*,*,#203,.F.);
#137=CARTESIAN_POINT('',(0.0,0.0,-24.5));
#138=DIRECTION('',(0.0,0.0,-1.0));
#139=DIRECTION('',(1.0,0.0,0.0));
#140=ORIENTED_EDGE('',*,*,#204,.F.);
#141=ORIENTED_EDGE('',*,*,#205,.T.);
#142=ORIENTED_EDGE('',*,*,#206,.F.);
#143=ORIENTED_EDGE('',*,*,#207,.T.);
#144=CARTESIAN_POINT('',(0.0,0.0,-49.0));
#145=DIRECTION('',(-0.0,-0.0,1.0));
#146=DIRECTION('',(-1.0,0.0,0.0));
#147=ORIENTED_EDGE('',*,*,#204,.T.);
#148=ORIENTED_EDGE('',*,*,#208,.T.);
#149=ORIENTED_EDGE('',*,*,#206,.T.);
#150=ORIENTED_EDGE('',*,*,#203,.T.);
#151=CARTESIAN_POINT('',(0.0,0.0,-49.0));
#152=DIRECTION('',(-0.0,-0.0,1.0));
#153=DIRECTION('',(-1.0,0.0,0.0));
#154=ORIENTED_EDGE('',*,*,#201,.T.);
#155=ORIENTED_EDGE('',*,*,#205,.F.);
#156=ORIENTED_EDGE('',*,*,#202,.T.);
#157=ORIENTED_EDGE('',*,*,#209,.F.);
#158=CARTESIAN_POINT('',(0.0,0.0,-24.5));
#159=DIRECTION('',(0.0,0.0,-1.0));
#160=DIRECTION('',(1.0,0.0,0.0));
#161=ORIENTED_EDGE('',*,*,#207,.F.);
#162=ORIENTED_EDGE('',*,*,#208,.F.);
#163=CARTESIAN_POINT('',(0.0,0.0,-49.0));
#164=DIRECTION('',(0.0,0.0,-1.0));
#165=DIRECTION('',(1.0,0.0,0.0));
#166=ORIENTED_EDGE('',*,*,#197,.T.);
#167=ORIENTED_EDGE('',*,*,#210,.T.);
#168=ORIENTED_EDGE('',*,*,#199,.T.);
#169=ORIENTED_EDGE('',*,*,#209,.T.);
#170=CARTESIAN_POINT('',(0.0,0.0,0.0));
#171=DIRECTION('',(-0.0,-0.0,-1.0));
#172=DIRECTION('',(-1.0,0.0,0.0));
#173=ORIENTED_EDGE('',*,*,#200,.F.);
#174=ORIENTED_EDGE('',*,*,#210,.F.);
#175=CARTESIAN_POINT('',(0.0,0.0,0.0));
#176=DIRECTION('',(0.0,0.0,1.0));
#177=DIRECTION('',(-1.0,0.0,0.0));
#178=FILL_AREA_STYLE_COLOUR('',#211);
#179=ORIENTED_EDGE('',*,*,#212,.T.);
#180=ORIENTED_EDGE('',*,*,#213,.T.);
#181=CARTESIAN_POINT('',(0.0,0.0,-55.0));
#182=DIRECTION('',(0.0,0.0,1.0));
#183=DIRECTION('',(-1.0,0.0,0.0));
#184=ORIENTED_EDGE('',*,*,#214,.F.);
#185=ORIENTED_EDGE('',*,*,#215,.F.);
#186=ORIENTED_EDGE('',*,*,#212,.F.);
#187=ORIENTED_EDGE('',*,*,#213,.F.);
#188=CARTESIAN_POINT('',(0.0,0.0,-49.0));
#189=DIRECTION('',(0.0,0.0,-1.0));
#190=DIRECTION('',(-1.0,0.0,0.0));
#191=ORIENTED_EDGE('',*,*,#214,.T.);
#192=ORIENTED_EDGE('',*,*,#215,.T.);
#193=CARTESIAN_POINT('',(0.0,0.0,-49.0));
#194=DIRECTION('',(0.0,0.0,-1.0));
#195=DIRECTION('',(1.0,0.0,0.0));
#196=COLOUR_RGB('',0.756862759590149,0.756862759590149,0.756862759590149);
#197=EDGE_CURVE('',#216,#217,#218,.T.);
#198=EDGE_CURVE('',#216,#219,#220,.T.);
#199=EDGE_CURVE('',#221,#219,#222,.T.);
#200=EDGE_CURVE('',#221,#217,#223,.T.);
#201=EDGE_CURVE('',#219,#224,#225,.T.);
#202=EDGE_CURVE('',#226,#216,#227,.T.);
#203=EDGE_CURVE('',#224,#226,#228,.T.);
#204=EDGE_CURVE('',#226,#229,#230,.T.);
#205=EDGE_CURVE('',#226,#224,#231,.T.);
#206=EDGE_CURVE('',#232,#224,#233,.T.);
#207=EDGE_CURVE('',#232,#229,#234,.T.);
#208=EDGE_CURVE('',#229,#232,#235,.T.);
#209=EDGE_CURVE('',#219,#216,#236,.T.);
#210=EDGE_CURVE('',#217,#221,#237,.T.);
#211=COLOUR_RGB('',0.0,1.0,0.0);
#212=EDGE_CURVE('',#238,#239,#240,.T.);
#213=EDGE_CURVE('',#239,#238,#241,.T.);
#214=EDGE_CURVE('',#242,#243,#244,.T.);
#215=EDGE_CURVE('',#243,#242,#245,.T.);
#216=VERTEX_POINT('',#246);
#217=VERTEX_POINT('',#247);
#218=LINE('',#248,#249);
#219=VERTEX_POINT('',#250);
#220=CIRCLE('',#251,3.0);
#221=VERTEX_POINT('',#252);
#222=LINE('',#253,#254);
#223=CIRCLE('',#255,2.6);
#224=VERTEX_POINT('',#256);
#225=LINE('',#257,#258);
#226=VERTEX_POINT('',#259);
#227=LINE('',#260,#261);
#228=CIRCLE('',#262,3.0);
#229=VERTEX_POINT('',#263);
#230=LINE('',#264,#265);
#231=CIRCLE('',#266,3.0);
#232=VERTEX_POINT('',#267);
#233=LINE('',#268,#269);
#234=CIRCLE('',#270,2.00001361384705);
#235=CIRCLE('',#271,2.00001361384705);
#236=CIRCLE('',#272,3.0);
#237=CIRCLE('',#273,2.6);
#238=VERTEX_POINT('',#274);
#239=VERTEX_POINT('',#275);
#240=CIRCLE('',#276,2.00001361384705);
#241=CIRCLE('',#277,2.00001361384705);
#242=VERTEX_POINT('',#278);
#243=VERTEX_POINT('',#279);
#244=CIRCLE('',#280,2.00001361384705);
#245=CIRCLE('',#281,2.00001361384705);
#246=CARTESIAN_POINT('',(-3.0,-3.67394039744206E-16,-0.399999999999999));
#247=CARTESIAN_POINT('',(-2.6,3.18408167778312E-16,0.0));
#248=CARTESIAN_POINT('',(-2.6,3.18408167778312E-16,0.0));
#249=VECTOR('',#282,1.0);
#250=CARTESIAN_POINT('',(3.0,3.67394039744206E-16,-0.399999999999999));
#251=AXIS2_PLACEMENT_3D('',#283,#284,#285);
#252=CARTESIAN_POINT('',(2.6,-3.18408167778312E-16,0.0));
#253=CARTESIAN_POINT('',(2.6,-3.18408167778312E-16,0.0));
#254=VECTOR('',#286,1.0);
#255=AXIS2_PLACEMENT_3D('',#287,#288,#289);
#256=CARTESIAN_POINT('',(3.0,-3.67394039744206E-16,-45.268));
#257=CARTESIAN_POINT('',(3.0,3.67394039744206E-16,-24.5));
#258=VECTOR('',#290,1.0);
#259=CARTESIAN_POINT('',(-3.0,-3.67394039744206E-16,-45.268));
#260=CARTESIAN_POINT('',(-3.0,-3.67394039744206E-16,-24.5));
#261=VECTOR('',#291,1.0);
#262=AXIS2_PLACEMENT_3D('',#292,#293,#294);
#263=CARTESIAN_POINT('',(-2.00001361384705,-2.44931027044892E-16,-49.0));
#264=CARTESIAN_POINT('',(-2.00001361384705,-2.44931027044892E-16,-49.0));
#265=VECTOR('',#295,1.0);
#266=AXIS2_PLACEMENT_3D('',#296,#297,#298);
#267=CARTESIAN_POINT('',(2.00001361384705,2.44931027044892E-16,-49.0));
#268=CARTESIAN_POINT('',(2.00001361384705,2.44931027044892E-16,-49.0));
#269=VECTOR('',#299,1.0);
#270=AXIS2_PLACEMENT_3D('',#300,#301,#302);
#271=AXIS2_PLACEMENT_3D('',#303,#304,#305);
#272=AXIS2_PLACEMENT_3D('',#306,#307,#308);
#273=AXIS2_PLACEMENT_3D('',#309,#310,#311);
#274=CARTESIAN_POINT('',(2.00001361384705,-2.44931027044892E-16,-55.0));
#275=CARTESIAN_POINT('',(-2.00001361384705,0.0,-55.0));
#276=AXIS2_PLACEMENT_3D('',#312,#313,#314);
#277=AXIS2_PLACEMENT_3D('',#315,#316,#317);
#278=CARTESIAN_POINT('',(2.00001361384705,2.44931027044892E-16,-49.0));
#279=CARTESIAN_POINT('',(-2.00001361384705,0.0,-49.0));
#280=AXIS2_PLACEMENT_3D('',#318,#319,#320);
#281=AXIS2_PLACEMENT_3D('',#321,#322,#323);
#282=DIRECTION('',(0.707106781186547,-8.65956056235493E-17,0.707106781186548));
#283=CARTESIAN_POINT('',(0.0,0.0,-0.399999999999999));
#284=DIRECTION('',(0.0,0.0,1.0));
#285=DIRECTION('',(-1.0,0.0,0.0));
#286=DIRECTION('',(0.707106781186547,-8.65956056235493E-17,-0.707106781186548));
#287=CARTESIAN_POINT('',(0.0,0.0,0.0));
#288=DIRECTION('',(0.0,0.0,-1.0));
#289=DIRECTION('',(-1.0,0.0,0.0));
#290=DIRECTION('',(0.0,0.0,-1.0));
#291=DIRECTION('',(-0.0,-0.0,1.0));
#292=CARTESIAN_POINT('',(0.0,0.0,-45.268));
#293=DIRECTION('',(0.0,0.0,-1.0));
#294=DIRECTION('',(-1.0,0.0,0.0));
#295=DIRECTION('',(0.258819045102521,3.16961915143176E-17,-0.965925826289068));
#296=CARTESIAN_POINT('',(0.0,0.0,-45.268));
#297=DIRECTION('',(0.0,0.0,-1.0));
#298=DIRECTION('',(-1.0,0.0,0.0));
#299=DIRECTION('',(0.258819045102521,3.16961915143176E-17,0.965925826289068));
#300=CARTESIAN_POINT('',(0.0,0.0,-49.0));
#301=DIRECTION('',(0.0,0.0,1.0));
#302=DIRECTION('',(-1.0,0.0,0.0));
#303=CARTESIAN_POINT('',(0.0,0.0,-49.0));
#304=DIRECTION('',(0.0,0.0,1.0));
#305=DIRECTION('',(-1.0,0.0,0.0));
#306=CARTESIAN_POINT('',(0.0,0.0,-0.399999999999999));
#307=DIRECTION('',(0.0,0.0,1.0));
#308=DIRECTION('',(-1.0,0.0,0.0));
#309=CARTESIAN_POINT('',(0.0,0.0,0.0));
#310=DIRECTION('',(0.0,0.0,-1.0));
#311=DIRECTION('',(-1.0,0.0,0.0));
#312=CARTESIAN_POINT('',(0.0,0.0,-55.0));
#313=DIRECTION('',(0.0,0.0,-1.0));
#314=DIRECTION('',(-1.0,0.0,0.0));
#315=CARTESIAN_POINT('',(0.0,0.0,-55.0));
#316=DIRECTION('',(0.0,0.0,-1.0));
#317=DIRECTION('',(-1.0,0.0,0.0));
#318=CARTESIAN_POINT('',(0.0,0.0,-49.0));
#319=DIRECTION('',(0.0,0.0,1.0));
#320=DIRECTION('',(-1.0,0.0,0.0));
#321=CARTESIAN_POINT('',(0.0,0.0,-49.0));
#322=DIRECTION('',(0.0,0.0,1.0));
#323=DIRECTION('',(-1.0,0.0,0.0));
ENDSEC;
END-ISO-10303-21;
