ISO-10303-21;
HEADER;
FILE_DESCRIPTION(('STEP AP214'),'1');
FILE_NAME('MH1008B8R10L120_FC.stp','2024-04-12T22:21:32',(' '),(' '),'Spatial InterOp 3D',' ',' ');
FILE_SCHEMA(('AUTOMOTIVE_DESIGN { 1 0 10303 214 1 1 1 1 }'));
ENDSEC;
DATA;
#1=MECHANICAL_DESIGN_GEOMETRIC_PRESENTATION_REPRESENTATION(' ',(#12,#13,#14),#8);
#2=PRODUCT_DEFINITION_CONTEXT('',#15,'design');
#3=APPLICATION_PROTOCOL_DEFINITION('INTERNATIONAL STANDARD','automotive_design',1994,#15);
#4=PRODUCT_CATEGORY_RELATIONSHIP('NONE','NONE',#16,#17);
#5=SHAPE_DEFINITION_REPRESENTATION(#18,#19);
#6=SHAPE_DEFINITION_REPRESENTATION(#18,#20);
#7=SHAPE_DEFINITION_REPRESENTATION(#18,#21);
#8= (GEOMETRIC_REPRESENTATION_CONTEXT(3)GLOBAL_UNCERTAINTY_ASSIGNED_CONTEXT((#24))GLOBAL_UNIT_ASSIGNED_CONTEXT((#26,#27,#28))REPRESENTATION_CONTEXT('NONE','WORKSPACE'));
#12=STYLED_ITEM('',(#30),#31);
#13=STYLED_ITEM('',(#32),#33);
#14=STYLED_ITEM('',(#34),#35);
#15=APPLICATION_CONTEXT(' ');
#16=PRODUCT_CATEGORY('part','NONE');
#17=PRODUCT_RELATED_PRODUCT_CATEGORY('detail',' ',(#36));
#18=PRODUCT_DEFINITION_SHAPE('NONE','NONE',#37);
#19=ADVANCED_BREP_SHAPE_REPRESENTATION('1',(#31,#38),#8);
#20=ADVANCED_BREP_SHAPE_REPRESENTATION('2',(#33,#39),#8);
#21=ADVANCED_BREP_SHAPE_REPRESENTATION('3',(#35,#40),#8);
#24=UNCERTAINTY_MEASURE_WITH_UNIT(LENGTH_MEASURE(1.0E-06),#26,'','');
#26= (CONVERSION_BASED_UNIT('MILLIMETRE',#43)LENGTH_UNIT()NAMED_UNIT(#46));
#27= (NAMED_UNIT(#48)PLANE_ANGLE_UNIT()SI_UNIT($,.RADIAN.));
#28= (NAMED_UNIT(#48)SOLID_ANGLE_UNIT()SI_UNIT($,.STERADIAN.));
#30=PRESENTATION_STYLE_ASSIGNMENT((#54));
#31=MANIFOLD_SOLID_BREP('1',#55);
#32=PRESENTATION_STYLE_ASSIGNMENT((#56));
#33=MANIFOLD_SOLID_BREP('2',#57);
#34=PRESENTATION_STYLE_ASSIGNMENT((#58));
#35=MANIFOLD_SOLID_BREP('3',#59);
#36=PRODUCT('1','','PART--DESC',(#60));
#37=PRODUCT_DEFINITION('','NONE',#61,#2);
#38=AXIS2_PLACEMENT_3D('',#62,#63,#64);
#39=AXIS2_PLACEMENT_3D('',#65,#66,#67);
#40=AXIS2_PLACEMENT_3D('',#68,#69,#70);
#43=LENGTH_MEASURE_WITH_UNIT(LENGTH_MEASURE(1.0),#71);
#46=DIMENSIONAL_EXPONENTS(1.0,0.0,0.0,0.0,0.0,0.0,0.0);
#48=DIMENSIONAL_EXPONENTS(0.0,0.0,0.0,0.0,0.0,0.0,0.0);
#54=SURFACE_STYLE_USAGE(.BOTH.,#72);
#55=CLOSED_SHELL('',(#73,#74,#75,#76,#77,#78,#79,#80));
#56=SURFACE_STYLE_USAGE(.BOTH.,#81);
#57=CLOSED_SHELL('',(#82,#83,#84,#85));
#58=SURFACE_STYLE_USAGE(.BOTH.,#86);
#59=CLOSED_SHELL('',(#87,#88,#89,#90,#91,#92));
#60=PRODUCT_CONTEXT('',#15,'mechanical');
#61=PRODUCT_DEFINITION_FORMATION_WITH_SPECIFIED_SOURCE(' ','NONE',#36,.NOT_KNOWN.);
#62=CARTESIAN_POINT('',(0.0,0.0,0.0));
#63=DIRECTION('',(0.0,0.0,1.0));
#64=DIRECTION('',(1.0,0.0,0.0));
#65=CARTESIAN_POINT('',(0.0,0.0,0.0));
#66=DIRECTION('',(0.0,0.0,1.0));
#67=DIRECTION('',(1.0,0.0,0.0));
#68=CARTESIAN_POINT('',(0.0,0.0,0.0));
#69=DIRECTION('',(0.0,0.0,1.0));
#70=DIRECTION('',(1.0,0.0,0.0));
#71= (NAMED_UNIT(#46)LENGTH_UNIT()SI_UNIT(.MILLI.,.METRE.));
#72=SURFACE_SIDE_STYLE('',(#94));
#73=ADVANCED_FACE('',(#95),#96,.T.);
#74=ADVANCED_FACE('',(#97),#98,.T.);
#75=ADVANCED_FACE('',(#99),#100,.T.);
#76=ADVANCED_FACE('',(#101),#102,.T.);
#77=ADVANCED_FACE('',(#103),#104,.T.);
#78=ADVANCED_FACE('',(#105),#106,.T.);
#79=ADVANCED_FACE('',(#107),#108,.T.);
#80=ADVANCED_FACE('',(#109),#110,.T.);
#81=SURFACE_SIDE_STYLE('',(#111));
#82=ADVANCED_FACE('',(#112),#113,.T.);
#83=ADVANCED_FACE('',(#114),#115,.T.);
#84=ADVANCED_FACE('',(#116),#117,.T.);
#85=ADVANCED_FACE('',(#118),#119,.F.);
#86=SURFACE_SIDE_STYLE('',(#120));
#87=ADVANCED_FACE('',(#121),#122,.T.);
#88=ADVANCED_FACE('',(#123),#124,.T.);
#89=ADVANCED_FACE('',(#125),#126,.T.);
#90=ADVANCED_FACE('',(#127),#128,.T.);
#91=ADVANCED_FACE('',(#129),#130,.T.);
#92=ADVANCED_FACE('',(#131),#132,.T.);
#94=SURFACE_STYLE_FILL_AREA(#133);
#95=FACE_OUTER_BOUND('',#134,.T.);
#96=CONICAL_SURFACE('',#135,4.5,0.785398163397448);
#97=FACE_OUTER_BOUND('',#136,.T.);
#98=CYLINDRICAL_SURFACE('',#137,5.0);
#99=FACE_OUTER_BOUND('',#138,.T.);
#100=CONICAL_SURFACE('',#139,3.70013085330556,0.02617993877992);
#101=FACE_OUTER_BOUND('',#140,.T.);
#102=CONICAL_SURFACE('',#141,3.70013085330556,0.02617993877992);
#103=FACE_OUTER_BOUND('',#142,.T.);
#104=CYLINDRICAL_SURFACE('',#143,5.0);
#105=FACE_OUTER_BOUND('',#144,.T.);
#106=PLANE('',#145);
#107=FACE_OUTER_BOUND('',#146,.T.);
#108=CONICAL_SURFACE('',#147,4.5,0.785398163397448);
#109=FACE_OUTER_BOUND('',#148,.T.);
#110=PLANE('',#149);
#111=SURFACE_STYLE_FILL_AREA(#150);
#112=FACE_OUTER_BOUND('',#151,.T.);
#113=CYLINDRICAL_SURFACE('',#152,3.70013085330556);
#114=FACE_OUTER_BOUND('',#153,.T.);
#115=CYLINDRICAL_SURFACE('',#154,3.70013085330556);
#116=FACE_OUTER_BOUND('',#155,.T.);
#117=PLANE('',#156);
#118=FACE_OUTER_BOUND('',#157,.T.);
#119=PLANE('',#158);
#120=SURFACE_STYLE_FILL_AREA(#159);
#121=FACE_OUTER_BOUND('',#160,.T.);
#122=CYLINDRICAL_SURFACE('',#161,4.0);
#123=FACE_OUTER_BOUND('',#162,.T.);
#124=TOROIDAL_SURFACE('',#163,3.0,1.0);
#125=FACE_OUTER_BOUND('',#164,.T.);
#126=TOROIDAL_SURFACE('',#165,3.0,1.0);
#127=FACE_OUTER_BOUND('',#166,.T.);
#128=CYLINDRICAL_SURFACE('',#167,4.0);
#129=FACE_OUTER_BOUND('',#168,.T.);
#130=PLANE('',#169);
#131=FACE_OUTER_BOUND('',#170,.T.);
#132=PLANE('',#171);
#133=FILL_AREA_STYLE('',(#172));
#134=EDGE_LOOP('',(#173,#174,#175,#176));
#135=AXIS2_PLACEMENT_3D('',#177,#178,#179);
#136=EDGE_LOOP('',(#180,#181,#182,#183));
#137=AXIS2_PLACEMENT_3D('',#184,#185,#186);
#138=EDGE_LOOP('',(#187,#188,#189,#190));
#139=AXIS2_PLACEMENT_3D('',#191,#192,#193);
#140=EDGE_LOOP('',(#194,#195,#196,#197));
#141=AXIS2_PLACEMENT_3D('',#198,#199,#200);
#142=EDGE_LOOP('',(#201,#202,#203,#204));
#143=AXIS2_PLACEMENT_3D('',#205,#206,#207);
#144=EDGE_LOOP('',(#208,#209));
#145=AXIS2_PLACEMENT_3D('',#210,#211,#212);
#146=EDGE_LOOP('',(#213,#214,#215,#216));
#147=AXIS2_PLACEMENT_3D('',#217,#218,#219);
#148=EDGE_LOOP('',(#220,#221));
#149=AXIS2_PLACEMENT_3D('',#222,#223,#224);
#150=FILL_AREA_STYLE('',(#225));
#151=EDGE_LOOP('',(#226,#227,#228,#229));
#152=AXIS2_PLACEMENT_3D('',#230,#231,#232);
#153=EDGE_LOOP('',(#233,#234,#235,#236));
#154=AXIS2_PLACEMENT_3D('',#237,#238,#239);
#155=EDGE_LOOP('',(#240,#241));
#156=AXIS2_PLACEMENT_3D('',#242,#243,#244);
#157=EDGE_LOOP('',(#245,#246));
#158=AXIS2_PLACEMENT_3D('',#247,#248,#249);
#159=FILL_AREA_STYLE('',(#250));
#160=EDGE_LOOP('',(#251,#252,#253,#254));
#161=AXIS2_PLACEMENT_3D('',#255,#256,#257);
#162=EDGE_LOOP('',(#258,#259,#260,#261));
#163=AXIS2_PLACEMENT_3D('',#262,#263,#264);
#164=EDGE_LOOP('',(#265,#266,#267,#268));
#165=AXIS2_PLACEMENT_3D('',#269,#270,#271);
#166=EDGE_LOOP('',(#272,#273,#274,#275));
#167=AXIS2_PLACEMENT_3D('',#276,#277,#278);
#168=EDGE_LOOP('',(#279,#280));
#169=AXIS2_PLACEMENT_3D('',#281,#282,#283);
#170=EDGE_LOOP('',(#284,#285));
#171=AXIS2_PLACEMENT_3D('',#286,#287,#288);
#172=FILL_AREA_STYLE_COLOUR('',#289);
#173=ORIENTED_EDGE('',*,*,#290,.F.);
#174=ORIENTED_EDGE('',*,*,#291,.T.);
#175=ORIENTED_EDGE('',*,*,#292,.F.);
#176=ORIENTED_EDGE('',*,*,#293,.T.);
#177=CARTESIAN_POINT('',(0.0,0.0,0.0));
#178=DIRECTION('',(-0.0,-0.0,-1.0));
#179=DIRECTION('',(-1.0,0.0,0.0));
#180=ORIENTED_EDGE('',*,*,#294,.F.);
#181=ORIENTED_EDGE('',*,*,#291,.F.);
#182=ORIENTED_EDGE('',*,*,#295,.F.);
#183=ORIENTED_EDGE('',*,*,#296,.F.);
#184=CARTESIAN_POINT('',(0.0,0.0,-45.0));
#185=DIRECTION('',(0.0,0.0,-1.0));
#186=DIRECTION('',(1.0,0.0,0.0));
#187=ORIENTED_EDGE('',*,*,#297,.F.);
#188=ORIENTED_EDGE('',*,*,#298,.T.);
#189=ORIENTED_EDGE('',*,*,#299,.F.);
#190=ORIENTED_EDGE('',*,*,#300,.T.);
#191=CARTESIAN_POINT('',(0.0,0.0,-90.0));
#192=DIRECTION('',(-0.0,-0.0,1.0));
#193=DIRECTION('',(-1.0,0.0,0.0));
#194=ORIENTED_EDGE('',*,*,#297,.T.);
#195=ORIENTED_EDGE('',*,*,#301,.T.);
#196=ORIENTED_EDGE('',*,*,#299,.T.);
#197=ORIENTED_EDGE('',*,*,#296,.T.);
#198=CARTESIAN_POINT('',(0.0,0.0,-90.0));
#199=DIRECTION('',(-0.0,-0.0,1.0));
#200=DIRECTION('',(-1.0,0.0,0.0));
#201=ORIENTED_EDGE('',*,*,#294,.T.);
#202=ORIENTED_EDGE('',*,*,#298,.F.);
#203=ORIENTED_EDGE('',*,*,#295,.T.);
#204=ORIENTED_EDGE('',*,*,#302,.F.);
#205=CARTESIAN_POINT('',(0.0,0.0,-45.0));
#206=DIRECTION('',(0.0,0.0,-1.0));
#207=DIRECTION('',(1.0,0.0,0.0));
#208=ORIENTED_EDGE('',*,*,#300,.F.);
#209=ORIENTED_EDGE('',*,*,#301,.F.);
#210=CARTESIAN_POINT('',(0.0,0.0,-90.0));
#211=DIRECTION('',(0.0,0.0,-1.0));
#212=DIRECTION('',(1.0,0.0,0.0));
#213=ORIENTED_EDGE('',*,*,#290,.T.);
#214=ORIENTED_EDGE('',*,*,#303,.T.);
#215=ORIENTED_EDGE('',*,*,#292,.T.);
#216=ORIENTED_EDGE('',*,*,#302,.T.);
#217=CARTESIAN_POINT('',(0.0,0.0,0.0));
#218=DIRECTION('',(-0.0,-0.0,-1.0));
#219=DIRECTION('',(-1.0,0.0,0.0));
#220=ORIENTED_EDGE('',*,*,#293,.F.);
#221=ORIENTED_EDGE('',*,*,#303,.F.);
#222=CARTESIAN_POINT('',(0.0,0.0,0.0));
#223=DIRECTION('',(0.0,0.0,1.0));
#224=DIRECTION('',(-1.0,0.0,0.0));
#225=FILL_AREA_STYLE_COLOUR('',#304);
#226=ORIENTED_EDGE('',*,*,#305,.F.);
#227=ORIENTED_EDGE('',*,*,#306,.F.);
#228=ORIENTED_EDGE('',*,*,#307,.F.);
#229=ORIENTED_EDGE('',*,*,#308,.T.);
#230=CARTESIAN_POINT('',(0.0,0.0,-90.0));
#231=DIRECTION('',(0.0,0.0,-1.0));
#232=DIRECTION('',(-1.0,0.0,0.0));
#233=ORIENTED_EDGE('',*,*,#305,.T.);
#234=ORIENTED_EDGE('',*,*,#309,.T.);
#235=ORIENTED_EDGE('',*,*,#307,.T.);
#236=ORIENTED_EDGE('',*,*,#310,.F.);
#237=CARTESIAN_POINT('',(0.0,0.0,-90.0));
#238=DIRECTION('',(0.0,0.0,-1.0));
#239=DIRECTION('',(-1.0,0.0,0.0));
#240=ORIENTED_EDGE('',*,*,#308,.F.);
#241=ORIENTED_EDGE('',*,*,#309,.F.);
#242=CARTESIAN_POINT('',(0.0,0.0,-112.0));
#243=DIRECTION('',(0.0,0.0,-1.0));
#244=DIRECTION('',(1.0,0.0,0.0));
#245=ORIENTED_EDGE('',*,*,#306,.T.);
#246=ORIENTED_EDGE('',*,*,#310,.T.);
#247=CARTESIAN_POINT('',(0.0,0.0,-90.0));
#248=DIRECTION('',(0.0,0.0,-1.0));
#249=DIRECTION('',(1.0,0.0,0.0));
#250=FILL_AREA_STYLE_COLOUR('',#311);
#251=ORIENTED_EDGE('',*,*,#312,.F.);
#252=ORIENTED_EDGE('',*,*,#313,.F.);
#253=ORIENTED_EDGE('',*,*,#314,.F.);
#254=ORIENTED_EDGE('',*,*,#315,.F.);
#255=CARTESIAN_POINT('',(0.0,0.0,-116.0));
#256=DIRECTION('',(0.0,0.0,-1.0));
#257=DIRECTION('',(1.0,0.0,0.0));
#258=ORIENTED_EDGE('',*,*,#316,.F.);
#259=ORIENTED_EDGE('',*,*,#315,.T.);
#260=ORIENTED_EDGE('',*,*,#317,.F.);
#261=ORIENTED_EDGE('',*,*,#318,.T.);
#262=CARTESIAN_POINT('',(0.0,0.0,-119.0));
#263=DIRECTION('',(0.0,0.0,-1.0));
#264=DIRECTION('',(1.0,0.0,0.0));
#265=ORIENTED_EDGE('',*,*,#316,.T.);
#266=ORIENTED_EDGE('',*,*,#319,.T.);
#267=ORIENTED_EDGE('',*,*,#317,.T.);
#268=ORIENTED_EDGE('',*,*,#320,.T.);
#269=CARTESIAN_POINT('',(0.0,0.0,-119.0));
#270=DIRECTION('',(0.0,0.0,-1.0));
#271=DIRECTION('',(1.0,0.0,0.0));
#272=ORIENTED_EDGE('',*,*,#312,.T.);
#273=ORIENTED_EDGE('',*,*,#320,.F.);
#274=ORIENTED_EDGE('',*,*,#314,.T.);
#275=ORIENTED_EDGE('',*,*,#321,.F.);
#276=CARTESIAN_POINT('',(0.0,0.0,-116.0));
#277=DIRECTION('',(0.0,0.0,-1.0));
#278=DIRECTION('',(1.0,0.0,0.0));
#279=ORIENTED_EDGE('',*,*,#319,.F.);
#280=ORIENTED_EDGE('',*,*,#318,.F.);
#281=CARTESIAN_POINT('',(0.0,0.0,-120.0));
#282=DIRECTION('',(0.0,0.0,-1.0));
#283=DIRECTION('',(1.0,0.0,0.0));
#284=ORIENTED_EDGE('',*,*,#321,.T.);
#285=ORIENTED_EDGE('',*,*,#313,.T.);
#286=CARTESIAN_POINT('',(0.0,0.0,-112.0));
#287=DIRECTION('',(0.0,0.0,1.0));
#288=DIRECTION('',(-1.0,0.0,0.0));
#289=COLOUR_RGB('',0.756862759590149,0.756862759590149,0.756862759590149);
#290=EDGE_CURVE('',#322,#323,#324,.T.);
#291=EDGE_CURVE('',#322,#325,#326,.T.);
#292=EDGE_CURVE('',#327,#325,#328,.T.);
#293=EDGE_CURVE('',#327,#323,#329,.T.);
#294=EDGE_CURVE('',#325,#330,#331,.T.);
#295=EDGE_CURVE('',#332,#322,#333,.T.);
#296=EDGE_CURVE('',#330,#332,#334,.T.);
#297=EDGE_CURVE('',#332,#335,#336,.T.);
#298=EDGE_CURVE('',#332,#330,#337,.T.);
#299=EDGE_CURVE('',#338,#330,#339,.T.);
#300=EDGE_CURVE('',#338,#335,#340,.T.);
#301=EDGE_CURVE('',#335,#338,#341,.T.);
#302=EDGE_CURVE('',#325,#322,#342,.T.);
#303=EDGE_CURVE('',#323,#327,#343,.T.);
#304=COLOUR_RGB('',0.756862759590149,0.756862759590149,0.756862759590149);
#305=EDGE_CURVE('',#344,#345,#346,.T.);
#306=EDGE_CURVE('',#347,#344,#348,.T.);
#307=EDGE_CURVE('',#349,#347,#350,.T.);
#308=EDGE_CURVE('',#349,#345,#351,.T.);
#309=EDGE_CURVE('',#345,#349,#352,.T.);
#310=EDGE_CURVE('',#344,#347,#353,.T.);
#311=COLOUR_RGB('',0.0,1.0,0.0);
#312=EDGE_CURVE('',#354,#355,#356,.T.);
#313=EDGE_CURVE('',#357,#354,#358,.T.);
#314=EDGE_CURVE('',#359,#357,#360,.T.);
#315=EDGE_CURVE('',#355,#359,#361,.T.);
#316=EDGE_CURVE('',#355,#362,#363,.T.);
#317=EDGE_CURVE('',#364,#359,#365,.T.);
#318=EDGE_CURVE('',#364,#362,#366,.T.);
#319=EDGE_CURVE('',#362,#364,#367,.T.);
#320=EDGE_CURVE('',#359,#355,#368,.T.);
#321=EDGE_CURVE('',#354,#357,#369,.T.);
#322=VERTEX_POINT('',#370);
#323=VERTEX_POINT('',#371);
#324=LINE('',#372,#373);
#325=VERTEX_POINT('',#374);
#326=CIRCLE('',#375,5.0);
#327=VERTEX_POINT('',#376);
#328=LINE('',#377,#378);
#329=CIRCLE('',#379,4.5);
#330=VERTEX_POINT('',#380);
#331=LINE('',#381,#382);
#332=VERTEX_POINT('',#383);
#333=LINE('',#384,#385);
#334=CIRCLE('',#386,5.0);
#335=VERTEX_POINT('',#387);
#336=LINE('',#388,#389);
#337=CIRCLE('',#390,5.0);
#338=VERTEX_POINT('',#391);
#339=LINE('',#392,#393);
#340=CIRCLE('',#394,3.70013085330556);
#341=CIRCLE('',#395,3.70013085330556);
#342=CIRCLE('',#396,5.0);
#343=CIRCLE('',#397,4.5);
#344=VERTEX_POINT('',#398);
#345=VERTEX_POINT('',#399);
#346=LINE('',#400,#401);
#347=VERTEX_POINT('',#402);
#348=CIRCLE('',#403,3.70013085330556);
#349=VERTEX_POINT('',#404);
#350=LINE('',#405,#406);
#351=CIRCLE('',#407,3.70013085330556);
#352=CIRCLE('',#408,3.70013085330556);
#353=CIRCLE('',#409,3.70013085330556);
#354=VERTEX_POINT('',#410);
#355=VERTEX_POINT('',#411);
#356=LINE('',#412,#413);
#357=VERTEX_POINT('',#414);
#358=CIRCLE('',#415,4.0);
#359=VERTEX_POINT('',#416);
#360=LINE('',#417,#418);
#361=CIRCLE('',#419,4.0);
#362=VERTEX_POINT('',#420);
#363=CIRCLE('',#421,1.0);
#364=VERTEX_POINT('',#422);
#365=CIRCLE('',#423,1.0);
#366=CIRCLE('',#424,3.0);
#367=CIRCLE('',#425,3.0);
#368=CIRCLE('',#426,4.0);
#369=CIRCLE('',#427,4.0);
#370=CARTESIAN_POINT('',(-5.0,-6.12323399573677E-16,-0.5));
#371=CARTESIAN_POINT('',(-4.5,5.51091059616309E-16,0.0));
#372=CARTESIAN_POINT('',(-4.5,5.51091059616309E-16,0.0));
#373=VECTOR('',#428,1.0);
#374=CARTESIAN_POINT('',(5.0,6.12323399573676E-16,-0.5));
#375=AXIS2_PLACEMENT_3D('',#429,#430,#431);
#376=CARTESIAN_POINT('',(4.5,-5.51091059616309E-16,0.0));
#377=CARTESIAN_POINT('',(4.5,-5.51091059616309E-16,0.0));
#378=VECTOR('',#432,1.0);
#379=AXIS2_PLACEMENT_3D('',#433,#434,#435);
#380=CARTESIAN_POINT('',(5.0,-6.12323399573676E-16,-40.36));
#381=CARTESIAN_POINT('',(5.0,6.12323399573677E-16,-20.43));
#382=VECTOR('',#436,1.0);
#383=CARTESIAN_POINT('',(-5.0,-6.12323399573676E-16,-40.36));
#384=CARTESIAN_POINT('',(-5.0,-6.12323399573677E-16,-20.43));
#385=VECTOR('',#437,1.0);
#386=AXIS2_PLACEMENT_3D('',#438,#439,#440);
#387=CARTESIAN_POINT('',(-3.70013085330556,-4.53135340592702E-16,-90.0));
#388=CARTESIAN_POINT('',(-3.70013085330556,-4.53135340592702E-16,-90.0));
#389=VECTOR('',#441,1.0);
#390=AXIS2_PLACEMENT_3D('',#442,#443,#444);
#391=CARTESIAN_POINT('',(3.70013085330556,4.53135340592702E-16,-90.0));
#392=CARTESIAN_POINT('',(3.70013085330556,4.53135340592702E-16,-90.0));
#393=VECTOR('',#445,1.0);
#394=AXIS2_PLACEMENT_3D('',#446,#447,#448);
#395=AXIS2_PLACEMENT_3D('',#449,#450,#451);
#396=AXIS2_PLACEMENT_3D('',#452,#453,#454);
#397=AXIS2_PLACEMENT_3D('',#455,#456,#457);
#398=CARTESIAN_POINT('',(-3.70013085330556,-4.53135340592702E-16,-90.0));
#399=CARTESIAN_POINT('',(-3.70013085330556,-4.53135340592702E-16,-112.0));
#400=CARTESIAN_POINT('',(-3.70013085330556,-4.53135340592702E-16,-90.0));
#401=VECTOR('',#458,1.0);
#402=CARTESIAN_POINT('',(3.70013085330556,4.53135340592702E-16,-90.0));
#403=AXIS2_PLACEMENT_3D('',#459,#460,#461);
#404=CARTESIAN_POINT('',(3.70013085330556,4.53135340592702E-16,-112.0));
#405=CARTESIAN_POINT('',(3.70013085330556,4.53135340592702E-16,-90.0));
#406=VECTOR('',#462,1.0);
#407=AXIS2_PLACEMENT_3D('',#463,#464,#465);
#408=AXIS2_PLACEMENT_3D('',#466,#467,#468);
#409=AXIS2_PLACEMENT_3D('',#469,#470,#471);
#410=CARTESIAN_POINT('',(4.0,0.0,-112.0));
#411=CARTESIAN_POINT('',(4.0,0.0,-119.0));
#412=CARTESIAN_POINT('',(4.0,4.89858719658941E-16,-116.0));
#413=VECTOR('',#472,1.0);
#414=CARTESIAN_POINT('',(-4.0,-4.89858719658941E-16,-112.0));
#415=AXIS2_PLACEMENT_3D('',#473,#474,#475);
#416=CARTESIAN_POINT('',(-4.0,-4.89858719658941E-16,-119.0));
#417=CARTESIAN_POINT('',(-4.0,-4.89858719658941E-16,-116.0));
#418=VECTOR('',#476,1.0);
#419=AXIS2_PLACEMENT_3D('',#477,#478,#479);
#420=CARTESIAN_POINT('',(3.0,7.34788079488411E-16,-120.0));
#421=AXIS2_PLACEMENT_3D('',#480,#481,#482);
#422=CARTESIAN_POINT('',(-3.0,-3.67394039744206E-16,-120.0));
#423=AXIS2_PLACEMENT_3D('',#483,#484,#485);
#424=AXIS2_PLACEMENT_3D('',#486,#487,#488);
#425=AXIS2_PLACEMENT_3D('',#489,#490,#491);
#426=AXIS2_PLACEMENT_3D('',#492,#493,#494);
#427=AXIS2_PLACEMENT_3D('',#495,#496,#497);
#428=DIRECTION('',(0.707106781186548,-8.65956056235493E-17,0.707106781186548));
#429=CARTESIAN_POINT('',(0.0,0.0,-0.5));
#430=DIRECTION('',(0.0,0.0,1.0));
#431=DIRECTION('',(-1.0,0.0,0.0));
#432=DIRECTION('',(0.707106781186548,-8.65956056235493E-17,-0.707106781186548));
#433=CARTESIAN_POINT('',(0.0,0.0,0.0));
#434=DIRECTION('',(0.0,0.0,-1.0));
#435=DIRECTION('',(-1.0,0.0,0.0));
#436=DIRECTION('',(0.0,0.0,-1.0));
#437=DIRECTION('',(-0.0,-0.0,1.0));
#438=CARTESIAN_POINT('',(0.0,0.0,-40.36));
#439=DIRECTION('',(0.0,0.0,-1.0));
#440=DIRECTION('',(-1.0,0.0,0.0));
#441=DIRECTION('',(0.0261769483078731,3.20575159566825E-18,-0.999657324975557));
#442=CARTESIAN_POINT('',(0.0,0.0,-40.36));
#443=DIRECTION('',(0.0,0.0,-1.0));
#444=DIRECTION('',(-1.0,0.0,0.0));
#445=DIRECTION('',(0.0261769483078731,3.20575159566826E-18,0.999657324975557));
#446=CARTESIAN_POINT('',(0.0,0.0,-90.0));
#447=DIRECTION('',(0.0,0.0,1.0));
#448=DIRECTION('',(-1.0,0.0,0.0));
#449=CARTESIAN_POINT('',(0.0,0.0,-90.0));
#450=DIRECTION('',(0.0,0.0,1.0));
#451=DIRECTION('',(-1.0,0.0,0.0));
#452=CARTESIAN_POINT('',(0.0,0.0,-0.5));
#453=DIRECTION('',(0.0,0.0,1.0));
#454=DIRECTION('',(-1.0,0.0,0.0));
#455=CARTESIAN_POINT('',(0.0,0.0,0.0));
#456=DIRECTION('',(0.0,0.0,-1.0));
#457=DIRECTION('',(-1.0,0.0,0.0));
#458=DIRECTION('',(0.0,0.0,-1.0));
#459=CARTESIAN_POINT('',(0.0,0.0,-90.0));
#460=DIRECTION('',(0.0,0.0,1.0));
#461=DIRECTION('',(-1.0,0.0,0.0));
#462=DIRECTION('',(-0.0,-0.0,1.0));
#463=CARTESIAN_POINT('',(0.0,0.0,-112.0));
#464=DIRECTION('',(0.0,0.0,1.0));
#465=DIRECTION('',(-1.0,0.0,0.0));
#466=CARTESIAN_POINT('',(0.0,0.0,-112.0));
#467=DIRECTION('',(0.0,0.0,1.0));
#468=DIRECTION('',(-1.0,0.0,0.0));
#469=CARTESIAN_POINT('',(0.0,0.0,-90.0));
#470=DIRECTION('',(0.0,0.0,1.0));
#471=DIRECTION('',(-1.0,0.0,0.0));
#472=DIRECTION('',(0.0,0.0,-1.0));
#473=CARTESIAN_POINT('',(0.0,0.0,-112.0));
#474=DIRECTION('',(0.0,0.0,1.0));
#475=DIRECTION('',(1.0,0.0,0.0));
#476=DIRECTION('',(-0.0,-0.0,1.0));
#477=CARTESIAN_POINT('',(0.0,0.0,-119.0));
#478=DIRECTION('',(-0.0,0.0,-1.0));
#479=DIRECTION('',(-1.0,-1.22464679914735E-16,0.0));
#480=CARTESIAN_POINT('',(3.0,3.67394039744206E-16,-119.0));
#481=DIRECTION('',(-1.22464679914735E-16,1.0,0.0));
#482=DIRECTION('',(1.0,1.22464679914735E-16,0.0));
#483=CARTESIAN_POINT('',(-3.0,-3.67394039744206E-16,-119.0));
#484=DIRECTION('',(-1.22464679914735E-16,1.0,0.0));
#485=DIRECTION('',(-1.0,-1.22464679914735E-16,0.0));
#486=CARTESIAN_POINT('',(0.0,0.0,-120.0));
#487=DIRECTION('',(0.0,0.0,1.0));
#488=DIRECTION('',(-1.0,-1.22464679914735E-16,0.0));
#489=CARTESIAN_POINT('',(0.0,0.0,-120.0));
#490=DIRECTION('',(0.0,0.0,1.0));
#491=DIRECTION('',(-1.0,-1.22464679914735E-16,0.0));
#492=CARTESIAN_POINT('',(0.0,0.0,-119.0));
#493=DIRECTION('',(-0.0,0.0,-1.0));
#494=DIRECTION('',(-1.0,-1.22464679914735E-16,0.0));
#495=CARTESIAN_POINT('',(0.0,0.0,-112.0));
#496=DIRECTION('',(0.0,0.0,1.0));
#497=DIRECTION('',(1.0,0.0,0.0));
ENDSEC;
END-ISO-10303-21;
