ISO-10303-21;
HEADER;
FILE_DESCRIPTION(('STEP AP214'),'1');
FILE_NAME('M0606D26_LC.stp','2024-03-27T22:24:07',(' '),(' '),'Spatial InterOp 3D',' ',' ');
FILE_SCHEMA(('AUTOMOTIVE_DESIGN { 1 0 10303 214 1 1 1 1 }'));
ENDSEC;
DATA;
#1=MECHANICAL_DESIGN_GEOMETRIC_PRESENTATION_REPRESENTATION(' ',(#11,#12),#7);
#2=PRODUCT_DEFINITION_CONTEXT('',#13,'design');
#3=APPLICATION_PROTOCOL_DEFINITION('INTERNATIONAL STANDARD','automotive_design',1994,#13);
#4=PRODUCT_CATEGORY_RELATIONSHIP('NONE','NONE',#14,#15);
#5=SHAPE_DEFINITION_REPRESENTATION(#16,#17);
#6=SHAPE_DEFINITION_REPRESENTATION(#16,#18);
#7= (GEOMETRIC_REPRESENTATION_CONTEXT(3)GLOBAL_UNCERTAINTY_ASSIGNED_CONTEXT((#21))GLOBAL_UNIT_ASSIGNED_CONTEXT((#23,#24,#25))REPRESENTATION_CONTEXT('NONE','WORKSPACE'));
#11=STYLED_ITEM('',(#27),#28);
#12=STYLED_ITEM('',(#29),#30);
#13=APPLICATION_CONTEXT(' ');
#14=PRODUCT_CATEGORY('part','NONE');
#15=PRODUCT_RELATED_PRODUCT_CATEGORY('detail',' ',(#31));
#16=PRODUCT_DEFINITION_SHAPE('NONE','NONE',#32);
#17=ADVANCED_BREP_SHAPE_REPRESENTATION('1',(#28,#33),#7);
#18=ADVANCED_BREP_SHAPE_REPRESENTATION('2',(#30,#34),#7);
#21=UNCERTAINTY_MEASURE_WITH_UNIT(LENGTH_MEASURE(1.0E-06),#23,'','');
#23= (CONVERSION_BASED_UNIT('MILLIMETRE',#37)LENGTH_UNIT()NAMED_UNIT(#40));
#24= (NAMED_UNIT(#42)PLANE_ANGLE_UNIT()SI_UNIT($,.RADIAN.));
#25= (NAMED_UNIT(#42)SOLID_ANGLE_UNIT()SI_UNIT($,.STERADIAN.));
#27=PRESENTATION_STYLE_ASSIGNMENT((#48));
#28=MANIFOLD_SOLID_BREP('1',#49);
#29=PRESENTATION_STYLE_ASSIGNMENT((#50));
#30=MANIFOLD_SOLID_BREP('2',#51);
#31=PRODUCT('1','','PART--DESC',(#52));
#32=PRODUCT_DEFINITION('','NONE',#53,#2);
#33=AXIS2_PLACEMENT_3D('',#54,#55,#56);
#34=AXIS2_PLACEMENT_3D('',#57,#58,#59);
#37=LENGTH_MEASURE_WITH_UNIT(LENGTH_MEASURE(1.0),#60);
#40=DIMENSIONAL_EXPONENTS(1.0,0.0,0.0,0.0,0.0,0.0,0.0);
#42=DIMENSIONAL_EXPONENTS(0.0,0.0,0.0,0.0,0.0,0.0,0.0);
#48=SURFACE_STYLE_USAGE(.BOTH.,#61);
#49=CLOSED_SHELL('',(#62,#63,#64,#65,#66,#67));
#50=SURFACE_STYLE_USAGE(.BOTH.,#68);
#51=CLOSED_SHELL('',(#69,#70,#71,#72));
#52=PRODUCT_CONTEXT('',#13,'mechanical');
#53=PRODUCT_DEFINITION_FORMATION_WITH_SPECIFIED_SOURCE(' ','NONE',#31,.NOT_KNOWN.);
#54=CARTESIAN_POINT('',(0.0,0.0,0.0));
#55=DIRECTION('',(0.0,0.0,1.0));
#56=DIRECTION('',(1.0,0.0,0.0));
#57=CARTESIAN_POINT('',(0.0,0.0,0.0));
#58=DIRECTION('',(0.0,0.0,1.0));
#59=DIRECTION('',(1.0,0.0,0.0));
#60= (NAMED_UNIT(#40)LENGTH_UNIT()SI_UNIT(.MILLI.,.METRE.));
#61=SURFACE_SIDE_STYLE('',(#74));
#62=ADVANCED_FACE('',(#75),#76,.T.);
#63=ADVANCED_FACE('',(#77),#78,.T.);
#64=ADVANCED_FACE('',(#79),#80,.T.);
#65=ADVANCED_FACE('',(#81),#82,.T.);
#66=ADVANCED_FACE('',(#83),#84,.T.);
#67=ADVANCED_FACE('',(#85),#86,.T.);
#68=SURFACE_SIDE_STYLE('',(#87));
#69=ADVANCED_FACE('',(#88),#89,.T.);
#70=ADVANCED_FACE('',(#90),#91,.T.);
#71=ADVANCED_FACE('',(#92),#93,.T.);
#72=ADVANCED_FACE('',(#94),#95,.F.);
#74=SURFACE_STYLE_FILL_AREA(#96);
#75=FACE_OUTER_BOUND('',#97,.T.);
#76=CYLINDRICAL_SURFACE('',#98,3.0);
#77=FACE_OUTER_BOUND('',#99,.T.);
#78=CONICAL_SURFACE('',#100,2.6,0.785398163397448);
#79=FACE_OUTER_BOUND('',#101,.T.);
#80=CONICAL_SURFACE('',#102,2.6,0.785398163397448);
#81=FACE_OUTER_BOUND('',#103,.T.);
#82=CYLINDRICAL_SURFACE('',#104,3.0);
#83=FACE_OUTER_BOUND('',#105,.T.);
#84=PLANE('',#106);
#85=FACE_OUTER_BOUND('',#107,.T.);
#86=PLANE('',#108);
#87=SURFACE_STYLE_FILL_AREA(#109);
#88=FACE_OUTER_BOUND('',#110,.T.);
#89=CYLINDRICAL_SURFACE('',#111,3.0);
#90=FACE_OUTER_BOUND('',#112,.T.);
#91=CYLINDRICAL_SURFACE('',#113,3.0);
#92=FACE_OUTER_BOUND('',#114,.T.);
#93=PLANE('',#115);
#94=FACE_OUTER_BOUND('',#116,.T.);
#95=PLANE('',#117);
#96=FILL_AREA_STYLE('',(#118));
#97=EDGE_LOOP('',(#119,#120,#121,#122));
#98=AXIS2_PLACEMENT_3D('',#123,#124,#125);
#99=EDGE_LOOP('',(#126,#127,#128,#129));
#100=AXIS2_PLACEMENT_3D('',#130,#131,#132);
#101=EDGE_LOOP('',(#133,#134,#135,#136));
#102=AXIS2_PLACEMENT_3D('',#137,#138,#139);
#103=EDGE_LOOP('',(#140,#141,#142,#143));
#104=AXIS2_PLACEMENT_3D('',#144,#145,#146);
#105=EDGE_LOOP('',(#147,#148));
#106=AXIS2_PLACEMENT_3D('',#149,#150,#151);
#107=EDGE_LOOP('',(#152,#153));
#108=AXIS2_PLACEMENT_3D('',#154,#155,#156);
#109=FILL_AREA_STYLE('',(#157));
#110=EDGE_LOOP('',(#158,#159,#160,#161));
#111=AXIS2_PLACEMENT_3D('',#162,#163,#164);
#112=EDGE_LOOP('',(#165,#166,#167,#168));
#113=AXIS2_PLACEMENT_3D('',#169,#170,#171);
#114=EDGE_LOOP('',(#172,#173));
#115=AXIS2_PLACEMENT_3D('',#174,#175,#176);
#116=EDGE_LOOP('',(#177,#178));
#117=AXIS2_PLACEMENT_3D('',#179,#180,#181);
#118=FILL_AREA_STYLE_COLOUR('',#182);
#119=ORIENTED_EDGE('',*,*,#183,.F.);
#120=ORIENTED_EDGE('',*,*,#184,.F.);
#121=ORIENTED_EDGE('',*,*,#185,.F.);
#122=ORIENTED_EDGE('',*,*,#186,.F.);
#123=CARTESIAN_POINT('',(0.0,0.0,-23.0));
#124=DIRECTION('',(0.0,0.0,-1.0));
#125=DIRECTION('',(1.0,0.0,0.0));
#126=ORIENTED_EDGE('',*,*,#187,.F.);
#127=ORIENTED_EDGE('',*,*,#184,.T.);
#128=ORIENTED_EDGE('',*,*,#188,.F.);
#129=ORIENTED_EDGE('',*,*,#189,.T.);
#130=CARTESIAN_POINT('',(0.0,0.0,0.0));
#131=DIRECTION('',(-0.0,-0.0,-1.0));
#132=DIRECTION('',(-1.0,0.0,0.0));
#133=ORIENTED_EDGE('',*,*,#187,.T.);
#134=ORIENTED_EDGE('',*,*,#190,.T.);
#135=ORIENTED_EDGE('',*,*,#188,.T.);
#136=ORIENTED_EDGE('',*,*,#191,.T.);
#137=CARTESIAN_POINT('',(0.0,0.0,0.0));
#138=DIRECTION('',(-0.0,-0.0,-1.0));
#139=DIRECTION('',(-1.0,0.0,0.0));
#140=ORIENTED_EDGE('',*,*,#183,.T.);
#141=ORIENTED_EDGE('',*,*,#192,.F.);
#142=ORIENTED_EDGE('',*,*,#185,.T.);
#143=ORIENTED_EDGE('',*,*,#191,.F.);
#144=CARTESIAN_POINT('',(0.0,0.0,-23.0));
#145=DIRECTION('',(0.0,0.0,-1.0));
#146=DIRECTION('',(1.0,0.0,0.0));
#147=ORIENTED_EDGE('',*,*,#189,.F.);
#148=ORIENTED_EDGE('',*,*,#190,.F.);
#149=CARTESIAN_POINT('',(0.0,0.0,0.0));
#150=DIRECTION('',(0.0,0.0,1.0));
#151=DIRECTION('',(-1.0,0.0,0.0));
#152=ORIENTED_EDGE('',*,*,#186,.T.);
#153=ORIENTED_EDGE('',*,*,#192,.T.);
#154=CARTESIAN_POINT('',(0.0,0.0,-46.0));
#155=DIRECTION('',(0.0,0.0,-1.0));
#156=DIRECTION('',(1.0,0.0,0.0));
#157=FILL_AREA_STYLE_COLOUR('',#193);
#158=ORIENTED_EDGE('',*,*,#194,.F.);
#159=ORIENTED_EDGE('',*,*,#195,.T.);
#160=ORIENTED_EDGE('',*,*,#196,.F.);
#161=ORIENTED_EDGE('',*,*,#197,.T.);
#162=CARTESIAN_POINT('',(0.0,0.0,-46.0));
#163=DIRECTION('',(0.0,0.0,-1.0));
#164=DIRECTION('',(1.0,0.0,0.0));
#165=ORIENTED_EDGE('',*,*,#194,.T.);
#166=ORIENTED_EDGE('',*,*,#198,.T.);
#167=ORIENTED_EDGE('',*,*,#196,.T.);
#168=ORIENTED_EDGE('',*,*,#199,.T.);
#169=CARTESIAN_POINT('',(0.0,0.0,-46.0));
#170=DIRECTION('',(0.0,0.0,-1.0));
#171=DIRECTION('',(1.0,0.0,0.0));
#172=ORIENTED_EDGE('',*,*,#198,.F.);
#173=ORIENTED_EDGE('',*,*,#197,.F.);
#174=CARTESIAN_POINT('',(0.0,0.0,-72.0));
#175=DIRECTION('',(0.0,0.0,-1.0));
#176=DIRECTION('',(1.0,0.0,0.0));
#177=ORIENTED_EDGE('',*,*,#195,.F.);
#178=ORIENTED_EDGE('',*,*,#199,.F.);
#179=CARTESIAN_POINT('',(0.0,0.0,-46.0));
#180=DIRECTION('',(0.0,0.0,-1.0));
#181=DIRECTION('',(1.0,0.0,0.0));
#182=COLOUR_RGB('',0.756862759590149,0.756862759590149,0.756862759590149);
#183=EDGE_CURVE('',#200,#201,#202,.T.);
#184=EDGE_CURVE('',#203,#200,#204,.T.);
#185=EDGE_CURVE('',#205,#203,#206,.T.);
#186=EDGE_CURVE('',#201,#205,#207,.T.);
#187=EDGE_CURVE('',#203,#208,#209,.T.);
#188=EDGE_CURVE('',#210,#200,#211,.T.);
#189=EDGE_CURVE('',#210,#208,#212,.T.);
#190=EDGE_CURVE('',#208,#210,#213,.T.);
#191=EDGE_CURVE('',#200,#203,#214,.T.);
#192=EDGE_CURVE('',#205,#201,#215,.T.);
#193=COLOUR_RGB('',0.0,1.0,0.0);
#194=EDGE_CURVE('',#216,#217,#218,.T.);
#195=EDGE_CURVE('',#216,#219,#220,.T.);
#196=EDGE_CURVE('',#221,#219,#222,.T.);
#197=EDGE_CURVE('',#221,#217,#223,.T.);
#198=EDGE_CURVE('',#217,#221,#224,.T.);
#199=EDGE_CURVE('',#219,#216,#225,.T.);
#200=VERTEX_POINT('',#226);
#201=VERTEX_POINT('',#227);
#202=LINE('',#228,#229);
#203=VERTEX_POINT('',#230);
#204=CIRCLE('',#231,3.0);
#205=VERTEX_POINT('',#232);
#206=LINE('',#233,#234);
#207=CIRCLE('',#235,3.0);
#208=VERTEX_POINT('',#236);
#209=LINE('',#237,#238);
#210=VERTEX_POINT('',#239);
#211=LINE('',#240,#241);
#212=CIRCLE('',#242,2.6);
#213=CIRCLE('',#243,2.6);
#214=CIRCLE('',#244,3.0);
#215=CIRCLE('',#245,3.0);
#216=VERTEX_POINT('',#246);
#217=VERTEX_POINT('',#247);
#218=LINE('',#248,#249);
#219=VERTEX_POINT('',#250);
#220=CIRCLE('',#251,3.0);
#221=VERTEX_POINT('',#252);
#222=LINE('',#253,#254);
#223=CIRCLE('',#255,3.0);
#224=CIRCLE('',#256,3.0);
#225=CIRCLE('',#257,3.0);
#226=CARTESIAN_POINT('',(3.0,3.67394039744206E-16,-0.399999999999999));
#227=CARTESIAN_POINT('',(3.0,0.0,-46.0));
#228=CARTESIAN_POINT('',(3.0,3.67394039744206E-16,-23.0));
#229=VECTOR('',#258,1.0);
#230=CARTESIAN_POINT('',(-3.0,3.67394039744206E-16,-0.399999999999999));
#231=AXIS2_PLACEMENT_3D('',#259,#260,#261);
#232=CARTESIAN_POINT('',(-3.0,-3.67394039744206E-16,-46.0));
#233=CARTESIAN_POINT('',(-3.0,-3.67394039744206E-16,-23.0));
#234=VECTOR('',#262,1.0);
#235=AXIS2_PLACEMENT_3D('',#263,#264,#265);
#236=CARTESIAN_POINT('',(-2.6,3.18408167778312E-16,0.0));
#237=CARTESIAN_POINT('',(-2.6,3.18408167778312E-16,0.0));
#238=VECTOR('',#266,1.0);
#239=CARTESIAN_POINT('',(2.6,-3.18408167778312E-16,0.0));
#240=CARTESIAN_POINT('',(2.6,-3.18408167778312E-16,0.0));
#241=VECTOR('',#267,1.0);
#242=AXIS2_PLACEMENT_3D('',#268,#269,#270);
#243=AXIS2_PLACEMENT_3D('',#271,#272,#273);
#244=AXIS2_PLACEMENT_3D('',#274,#275,#276);
#245=AXIS2_PLACEMENT_3D('',#277,#278,#279);
#246=CARTESIAN_POINT('',(3.0,0.0,-46.0));
#247=CARTESIAN_POINT('',(3.0,0.0,-72.0));
#248=CARTESIAN_POINT('',(3.0,3.67394039744206E-16,-46.0));
#249=VECTOR('',#280,1.0);
#250=CARTESIAN_POINT('',(-3.0,-3.67394039744206E-16,-46.0));
#251=AXIS2_PLACEMENT_3D('',#281,#282,#283);
#252=CARTESIAN_POINT('',(-3.0,-3.67394039744206E-16,-72.0));
#253=CARTESIAN_POINT('',(-3.0,-3.67394039744206E-16,-46.0));
#254=VECTOR('',#284,1.0);
#255=AXIS2_PLACEMENT_3D('',#285,#286,#287);
#256=AXIS2_PLACEMENT_3D('',#288,#289,#290);
#257=AXIS2_PLACEMENT_3D('',#291,#292,#293);
#258=DIRECTION('',(0.0,0.0,-1.0));
#259=CARTESIAN_POINT('',(0.0,0.0,-0.399999999999999));
#260=DIRECTION('',(0.0,0.0,1.0));
#261=DIRECTION('',(-1.0,0.0,0.0));
#262=DIRECTION('',(-0.0,-0.0,1.0));
#263=CARTESIAN_POINT('',(0.0,0.0,-46.0));
#264=DIRECTION('',(0.0,0.0,-1.0));
#265=DIRECTION('',(1.0,0.0,0.0));
#266=DIRECTION('',(0.707106781186547,-8.65956056235493E-17,0.707106781186548));
#267=DIRECTION('',(0.707106781186547,-8.65956056235493E-17,-0.707106781186548));
#268=CARTESIAN_POINT('',(0.0,0.0,0.0));
#269=DIRECTION('',(0.0,0.0,-1.0));
#270=DIRECTION('',(-1.0,0.0,0.0));
#271=CARTESIAN_POINT('',(0.0,0.0,0.0));
#272=DIRECTION('',(0.0,0.0,-1.0));
#273=DIRECTION('',(-1.0,0.0,0.0));
#274=CARTESIAN_POINT('',(0.0,0.0,-0.399999999999999));
#275=DIRECTION('',(0.0,0.0,1.0));
#276=DIRECTION('',(-1.0,0.0,0.0));
#277=CARTESIAN_POINT('',(0.0,0.0,-46.0));
#278=DIRECTION('',(0.0,0.0,-1.0));
#279=DIRECTION('',(1.0,0.0,0.0));
#280=DIRECTION('',(0.0,0.0,-1.0));
#281=CARTESIAN_POINT('',(0.0,0.0,-46.0));
#282=DIRECTION('',(0.0,0.0,-1.0));
#283=DIRECTION('',(1.0,0.0,0.0));
#284=DIRECTION('',(-0.0,-0.0,1.0));
#285=CARTESIAN_POINT('',(0.0,0.0,-72.0));
#286=DIRECTION('',(-0.0,0.0,1.0));
#287=DIRECTION('',(1.0,0.0,0.0));
#288=CARTESIAN_POINT('',(0.0,0.0,-72.0));
#289=DIRECTION('',(-0.0,0.0,1.0));
#290=DIRECTION('',(1.0,0.0,0.0));
#291=CARTESIAN_POINT('',(0.0,0.0,-46.0));
#292=DIRECTION('',(0.0,0.0,-1.0));
#293=DIRECTION('',(1.0,0.0,0.0));
ENDSEC;
END-ISO-10303-21;
